Oops, an error
Loading. Please wait.

Anything For You Bass Tab

version 1
version 1

Whole song

Interactive

94 views 1 this week
no commentswrite comment
1 2 3 4 5
3 more votes to show rating
add to favorites
launch autoscroll
font size
0
reset
guitar tuner
Autoscroll
slow
fast
+/-
esc
set tempo
stop
Help us to improve Ultimate-Guitar.com Take our survey!
×
Author
Anything for you - Evanescence

standard tuneing


Verse
G|--------------------------------|--------------------------------|
D|--0-0-0-0-0-0-0-0-0-0-0-0-0-3---|--0-0-0-0-0-0-0-0-0-0-0-0-0-----|
A|--------------------------------|----------------------------3---|
E|--------------------------------|--------------------------------|

--------------------------------|--------------------------------|
--0-0-0-0-0-0-0-0-0-0-0-0-0-3---|--0-0-0-0-0-0-0-0-0-0-0-0-0-----|
--------------------------------|----------------------------3---|
--------------------------------|--------------------------------|

--------------------------------|--------------------------------|
--0-0-0-0-0-0-0-0-0-0-0-0-0-3---|--0-0-0-0-0-0-0-0-0-0-0-0-0-----|
--------------------------------|----------------------------3---|
--------------------------------|--------------------------------|

--------------------------------|--------------------------------|
--0-0-0-0-0-0-0-0-0-0-0-0-0-3---|--0-0-0-0-0-0-0-0-0-0-0-0-0-----|
--------------------------------|----------------------------3---|
--------------------------------|--------------------------------|

pre-chorus
--------------------------------|--------------------------------|
--0-0-0-0-0-0-0-0-0-0-0-0-0-0---|--0-0-0-0-0-0-0-0-0-0-0-0-0-----|
--------------------------------|----------------------------3---|
--------------------------------|--------------------------------|

--------------------------------|--------------------------------|
--0-0-0-0-0-0-0-0-0-0-0-0-0-0---|--0-0-0-0-0-0-0-0-0-0-0-0-0-----|
--------------------------------|----------------------------3---|
--------------------------------|--------------------------------|

--------------------------------|--------------------------------|
--0-0-0-0-0-0-0-0-0-0-0-0-0-0---|--0-0-0-0-0-0-0-0-0-0-0-0-0-----|
--------------------------------|----------------------------3---|
--------------------------------|--------------------------------|

--------------------------------|--------------------------------|
--0-0-0-0-0-0-0-0-0-0-0-0-0-0---|--0-0-0-0-0-0-0-0-0-0-0-0-0-----|
--------------------------------|----------------------------3---|
--------------------------------|--------------------------------|

chorus
----------------------------------|----------------------------------|
--0-0-0-0-0-0-0-0-0-0-0-0-0-0-0-0-|----------------------------------|
----------------------------------|--3-3-3-3-3-3-3-3-3-3-3-3-3-3-3-3-|
----------------------------------|----------------------------------|

----------------------------------|----------------------------------|
----------------------------------|----------------------------------|
--2-2-2-2-2-2-2-2-2-2-2-2-2-2-2-2-|--1-1-1-1---------0-0-0-0---------|
----------------------------------|----------3-3-3-3---------1-1-1-1-|

----------------------------------|----------------------------------|
--0-0-0-0-0-0-0-0-0-0-0-0-0-0-0-0-|----------------------------------|
----------------------------------|--3-3-3-3-3-3-3-3-3-3-3-3-3-3-3-3-|
----------------------------------|----------------------------------|

----------------------------------|----------------------------------|
----------------------------------|----------------------------------|
--2-2-2-2-2-2-2-2-2-2-2-2-2-2-2-2-|--1-1-1-1---------0-0-0-0---------|
----------------------------------|----------3-3-3-3---------1-1-1-1-|

----------|
--0-------|
----------|
----------|

verse
--------------------------------|--------------------------------|
--0-0-0-0-0-0-0-0-0-0-0-0-0-0---|--0-0-0-0-0-0-0-0-0-0-0-0-0-----|
--------------------------------|----------------------------3---|
--------------------------------|--------------------------------|

--------------------------------|--------------------------------|
--0-0-0-0-0-0-0-0-0-0-0-0-0-0---|--0-0-0-0-0-0-0-0-0-0-0-0-0-----|
--------------------------------|----------------------------3---|
--------------------------------|--------------------------------|

--------------------------------|--------------------------------|
--0-0-0-0-0-0-0-0-0-0-0-0-0-0---|--0-0-0-0-0-0-0-0-0-0-0-0-0-----|
--------------------------------|----------------------------3---|
--------------------------------|--------------------------------|

--------------------------------|--------------------------------|
--0-0-0-0-0-0-0-0-0-0-0-0-0-0---|--0-0-0-0-0-0-0-0-0-0-0-0-0-----|
--------------------------------|----------------------------3---|
--------------------------------|--------------------------------|

pre-chorus (rest)

chorus
----------------------------------|----------------------------------|
--0-0-0-0-0-0-0-0-0-0-0-0-0-0-0-0-|----------------------------------|
----------------------------------|--3-3-3-3-3-3-3-3-3-3-3-3-3-3-3-3-|
----------------------------------|----------------------------------|

----------------------------------|----------------------------------|
----------------------------------|----------------------------------|
--2-2-2-2-2-2-2-2-2-2-2-2-2-2-2-2-|--1-1-1-1---------0-0-0-0---------|
----------------------------------|----------3-3-3-3---------1-1-1-1-|

----------------------------------|----------------------------------|
--0-0-0-0-0-0-0-0-0-0-0-0-0-0-0-0-|----------------------------------|
----------------------------------|--3-3-3-3-3-3-3-3-3-3-3-3-3-3-3-3-|
----------------------------------|----------------------------------|

----------------------------------|----------------------------------|
----------------------------------|----------------------------------|
--2-2-2-2-2-2-2-2-2-2-2-2-2-2-2-2-|--1-1-1-1---------0-0-0-0---------|
----------------------------------|----------3-3-3-3---------1-1-1-1-|

----------------------------------|----------------------------------|
--0-0-0-0-0-0-0-0-0-0-0-0-0-0-0-0-|----------------------------------|
----------------------------------|--3-3-3-3-3-3-3-3-3-3-3-3-3-3-3-3-|
----------------------------------|----------------------------------|

----------------------------------|----------------------------------|
----------------------------------|----------------------------------|
--2-2-2-2-2-2-2-2-2-2-2-2-2-2-2-2-|--1-1-1-1---------0-0-0-0---------|
----------------------------------|----------3-3-3-3---------1-1-1-1-|

----------------------------------|----------------------------------|
--0-0-0-0-0-0-0-0-0-0-0-0-0-0-0-0-|----------------------------------|
----------------------------------|--3-3-3-3-3-3-3-3-3-3-3-3-3-3-3-3-|
----------------------------------|----------------------------------|

----------------------------------|----------------------------------|
----------------------------------|----------------------------------|
--2-2-2-2-2-2-2-2-2-2-2-2-2-2-2-2-|--1-1-1-1---------0-0-0-0---------|
----------------------------------|----------3-3-3-3---------1-1-1-1-|

----------|
--0-------|
----------|
----------|

breakdown
----------------------------------|----------------------------------|
----------------------------------|--0-0-0-0-0-0-0-0-0-0-0-0-0-0-0-0-|
----3----3---------1----0---------|----------------------------------|
--------------3-------------------|----------------------------------|

----------------------------------|----------------------------------|
--0-0-0-0-0-0-0-0-0-0-0-0-0-0-0-0-|----------------------------------|
----------------------------------|--1-1-1-1---------0-0-0-0---------|
----------------------------------|----------3-3-3-3---------1-1-1-1-|

----------------------------------|----------------------------------|
----------------------0-----------|--0-0-0-0-0-0-0-0-0-0-0-0-0-0-0-0-|
----3----3---------3-----1--------|----------------------------------|
--------------3-------------------|----------------------------------|

----------------------------------|----------------------------------|
--0-0-0-0-0-0-0-0-0-0-0-0-0-0-0-0-|----------------------------------|
----------------------------------|--1-1-1-1---------0-0-0-0---------|
----------------------------------|----------3-3-3-3---------1-1-1-1-|

chorus
----------------------------------|----------------------------------|
--0-0-0-0-0-0-0-0-0-0-0-0-0-0-0-0-|----------------------------------|
----------------------------------|--3-3-3-3-3-3-3-3-3-3-3-3-3-3-3-3-|
----------------------------------|----------------------------------|

----------------------------------|----------------------------------|
----------------------------------|----------------------------------|
--2-2-2-2-2-2-2-2-2-2-2-2-2-2-2-2-|--1-1-1-1---------0-0-0-0---------|
----------------------------------|----------3-3-3-3---------1-1-1-1-|

----------------------------------|----------------------------------|
--0-0-0-0-0-0-0-0-0-0-0-0-0-0-0-0-|----------------------------------|
----------------------------------|--3-3-3-3-3-3-3-3-3-3-3-3-3-3-3-3-|
----------------------------------|----------------------------------|

----------------------------------|----------------------------------|
----------------------------------|----------------------------------|
--2-2-2-2-2-2-2-2-2-2-2-2-2-2-2-2-|--1-1-1-1---------0-0-0-0---------|
----------------------------------|----------3-3-3-3---------1-1-1-1-|

----------------------------------|----------------------------------|
--0-0-0-0-0-0-0-0-0-0-0-0-0-0-0-0-|----------------------------------|
----------------------------------|--3-3-3-3-3-3-3-3-3-3-3-3-3-3-3-3-|
----------------------------------|----------------------------------|

----------------------------------|----------------------------------|
----------------------------------|----------------------------------|
--2-2-2-2-2-2-2-2-2-2-2-2-2-2-2-2-|--1-1-1-1---------0-0-0-0---------|
----------------------------------|----------3-3-3-3---------1-1-1-1-|

----------------------------------|----------------------------------|
--0-0-0-0-0-0-0-0-0-0-0-0-0-0-0-0-|----------------------------------|
----------------------------------|--3-3-3-3-3-3-3-3-3-3-3-3-3-3-3-3-|
----------------------------------|----------------------------------|

----------------------------------|----------------------------------|
----------------------------------|----------------------------------|
--2-2-2-2-2-2-2-2-2-2-2-2-2-2-2-2-|--1-1-1-1---------0-0-0-0---------|
----------------------------------|----------3-3-3-3---------1-1-1-1-|

outro
----------|
--0-------|
----------|
----------|
Suggest correction
Give kudos to tab author, rate the tab!
1 2 3 4 5
comments
print report bad tab
guest
You may want to rate the tab now too:
select rating
Wanna post a correction for this tab? Suggest correction