Oops, an error
Loading. Please wait.

Anywhere Tab

version 1
version 1

Solo

Whole song

Interactive

5,294 views 3 this week
no commentswrite comment
1 2 3 4 5
x 4
add to favorites
launch autoscroll
font size
0
reset
how to read this tab
guitar tuner
Autoscroll
slow
fast
+/-
esc
set tempo
stop
Help us to improve Ultimate-Guitar.com Take our survey!
×
Author
ANYWHERE
EVANESCENCE

By Marios Theophanous
18/08/2004
email thmarios@cytanet.com.cy

GUITAR SOLO
use delay + hall effect + auto wah


e---------------------------------------------------------------|
B---------------------------------------------------------------|
G----------------11---------------------------------------------|
D-------11-12-14------------11-14--14/16-11-11b-------------11--|
A-12-14-------------12---14----------------------14-12~--14-----|
E---------------------------------------------------------------|


e---------------------------------------------------------------|
B---------------------------------------------------------------|
G----------------14-13-11-13-11-13-14----13-14-13---14/16/14----|
D-11h12p11------------------------------------------------------|
A----------14---------------------------------------------------|
E---------------------------------------------------------------|


e---------------------------------------------------------------|
B---------------------------------------------------------------|
G-13-14~--14-13-11-11~---13-14-13-14-14/16~---------------------|
D---------------------------------------------------------------|
A---------------------------------------------------------------|
E---------------------------------------------------------------|


For Any suggestions please feel free to email me. Thx
Suggest correction
comments
print report bad tab
guest
You may want to rate the tab now too:
select rating
Wanna post a correction for this tab? Suggest correction