Oops, an error
Loading. Please wait.

Anywhere Tab

version 2
version 2

Solo

Whole song

Interactive

1,568 views 3 this week
no commentswrite comment
1 2 3 4 5
please rate
add to favorites
launch autoscroll
font size
0
reset
how to read this tab
guitar tuner
Autoscroll
slow
fast
+/-
esc
set tempo
stop
Help us to improve Ultimate-Guitar.com Take our survey!
×
e---------------------------------------------------------------|
B---------------------------------------------------------------|
G-------------6-7-9--6---6-7-9---11-9-6-6-4-2----4-6-7-6-4------|
D-------6-7-9---------------------------------------------------|
A---------------------------------------------------------------|
E---------------------------------------------------------------|


e---------------------------------------------------------------|
B---10-9-9----9-10-9-10-9--12-10-9-10---10-9-----------9-10-----|
G----------11--------------------------------11-11--11----------|
D---------------------------------------------------------------|
A---------------------------------------------------------------|
E---------------------------------------------------------------|


e---------------------------------------------------------------|
B--9-10-12------------------------------------------------------|
G---------------------------------------------------------------|
D---------------------------------------------------------------|
A---------------------------------------------------------------|
E---------------------------------------------------------------|
Suggest correction
Give kudos to tab author, rate the tab!
1 2 3 4 5
comments
print report bad tab
guest
You may want to rate the tab now too:
select rating
Wanna post a correction for this tab? Suggest correction