Oops, an error
Loading. Please wait.

Anywhere Chords

version 3
version 3

Whole song

Interactive

7,796 views 54 this week
4 commentsread comments
1 2 3 4 5
excellent!
x 16
add to favorites
launch autoscroll
font size
0
reset
transpose
0
reset
simplify chords
display chords
guitar tuner
Tab Pro tools
  • play this tab
  • loop segment
  • change instrument
  • show fretboard
  • metronome
×
Best way to learn
"Anywhere"
Autoscroll
slow
fast
+/-
esc
set tempo
stop
Contributor
Difficulty
Capo
novice
2nd fret
Evanescence - Anywhere

One of my favorite songs, this is how I play it. It's 99% correct I think.
Please comment and rate, and correct me if smth is not right. :)

Tuning: Standard

Capo 2nd fret

Intro:   Em                                      Em/G                      Em/A
e||-----|---------------------|-----------------|-------------------------|---------------------|
B||-----|-----------------0---|-----------------|---------------------0---|-----------0---------|
G||-----|-----------0-------0-|-----------0-----|---------------0-------0-|---------0-----------|
D||-----|---------2-----2-----|---------2-----2-|-------------2-----2-----|-----2---------2-----|
A||-0h2-|-----2---------------|-----2-----------|---------2---------------|-0---------------0h2-|
E||-----|-0-------------------|-0---------------|-0h2h3-------------------|---------------------|
    Em                                     Em/G                    Em/A                  Em
e||---------------------|-----------------|-----------------------|-----------0---------|-0-------
B||-----------------0---|-----------------|-------------------0---|-------------0-------|-0-------
G||-----------0-------0-|-----------0-----|---------------0-----0-|---------0-----------|-0-VERSE-
D||---------2-----2-----|---------2-----2-|-------------2---------|-----2---------------|-2-------
A||-----2---------------|-----2-----------|---------x-------------|-0-------------0h2---|-2-------
E||-0-------------------|-0---------------|-0h2h3-----------------|-------------------0-|-0-------

Verse 1
Em                        G                 D
Dear my love, haven't you wanted to be with me
    Em                        G            D
And dear my love, haven't you longed to be free
  Em                         G            D
I can't keep pretending that I don't even know you
    Em                         G     D
And at sweet night, you are my ooooown
Em         D
Take my hand

Chorus
      G       D       Em
We're leaving here tonight
        C                      Bm
There's no need to tell anyone
       Am           D
They'd only hold us down
   G      D         Em
So by the mornings light
      C                        Bm
We'll be half way to anywhere
      Am                D         G    G/F#(220033)
Where love is more than just your name

Verse 2
Em                 G                 D
I have dreamt of a place for you and I
Em                      G   D
No one knows who we are there
Em                    G               D
All I want is to give my life only to you
Em                           G        D
I've dreamt so long I cannot dream anymore
      Em        D
Let's run away, I'll take you there

Chorus
      G       D       Em
We're leaving here tonight
        C                      Bm
There's no need to tell anyone
       Am           D
They'd only hold us down
   G      D        Em
So by the mornings light
      C                       Bm
We'll be half way to anywhere
      Am     D       G
Where no-one needs a reason

Bridge
Am          Bm
Forget this life
          C
Come with me
           D
Don't look back you're safe now
Am          Bm
Unlock your heart
          C
Drop your guard
         D
No one's left to stop you

Am          Bm
Forget this life
     C
Come with me
           D
Don't look back you're safe now
Am          Bm
Unlock your heart
     C
Drop your guard
         D                C
No one's left to stop you now

Solo ( chorus instumental )
e-------------------------------------------------------------------|
b-------------------------------------------------------------------|
g-------------------------9-9h11p9----------------------------------|
d---------9-11-12-11-9h11----------11-11^-9-----9----11----12-11-9--|
a-9-11-12-----------------------------------12----------------------|
e-------------------------------------------------------------------|

e----------------------------------------------10-------------------|
b-10p9---------9--10-9h10p9-10^-9-9h10--10-9---10-------------------|
g------11-9-11------------------------------11-11--13--14-13-14-16--|
d-------------------------------------------------------------------|
a-------------------------------------------------------------------|
e-------------------------------------------------------------------|

Chorus
      G       D      Em
We're leaving here tonight
        C                      Bm
There's no need to tell anyone
       Am           D
They'd only hold us down
   G      D        Em
So by the mornings light
      C                       Bm
We'll be half way to anywhere
      Am                D         G    D  Em  C  Bm Am D    G
Where love is more than just your name 
comments
print report bad tab
4 comments total. Showing first comments.
+2 reply
pagalagaloo wrote on February 26 2013, 06:21 pm

This is the best tab of this song that I've seen. keep it up!

0 reply
Stefan_P wrote on February 27 2013, 03:42 pm

tnx :) Tried to upload my version of My Immortal some time ago, but these's already too many tabs, so they rejected me. shame,it's a good tab... :/

0 reply
alvaro.alvarez000 wrote on November 19 2015, 10:08 am

i just play de Bm only in the bridge, but to me didn't sound right, but it's an excelent tab, CONGRATULATIONS¡

I want to post or [tab]
guest
You may want to rate the tab now too:
select rating
Please do not post tabs as comments. Select "correction" instead!