Oops, an error
Loading. Please wait.

Bleed tab

version 1
version 1

Whole song

Interactive

3,572 views 3 this week
3 commentsread comments
1 2 3 4 5
x 6
add to favorites
×
Save as Personal and add changes to this tab that will be seen only by you. Learn more ›
×
You can save this tab as Personal to edit and correct it or add notes. All changes will be seen only by you. Learn more »
launch autoscroll
font size
0
reset
how to read this tab
guitar tuner
edit
Autoscroll
slow
fast
+/-
esc
set tempo
stop
Song Title: I must be dreaming
Band: Evanescence
Album: Unknown 
Year: 2001-2002 (demo)

+Alice+ B.A.V.G.
(T.D.P.C)


P.M.- Palm Mute
/ \ - Slide
 
Standard:
E A D G B E


Intro/Verse

|---------------------------------------------|
|---------------------------------------------|
|---------11--11--12--11-11-------7-------7---|
|---9----9--9------------------5-5----5-5-----|
|---------------------------------------------|
|---------------------------------------------| x10

Verse (0:39)

|-------------------------------------------------------------------|
|-------------------------------------------------------------------|
|---4-4--4-4--4--4-4--5-5-5\4----4-4--4-4--4--4-4--7-7-7\4----------|
|---4-4--4-4--4--4-4--5-5-5\4----4-4--4-4--4--4-4--7-7-7\4----------|
|---2-2--2-2--2--2-2--3-3-3\2----2-2--2-2--2--2-2--5-5-5\2----------|
|---2-2--2-2--2--2-2--3-3-3\2----2-2--2-2--2--2-2--5-5-5\2----------|


|-------------------------------------------------------------------|
|-------------------------------------------------------------------|
|---4-4--4-4--4--4-4--5-5-5\4--5-5/7-7-7/9-9-9-9-9/11-11-11-11-11---|
|---4-4--4-4--4--4-4--5-5-5\4--x-x-x-x-x-x-x-x-x-x-x—--x—-x-—x--x---|
|---2-2--2-2--2--2-2--3-3-3\2--3-3/5-5-5/7-7-7-7-7/9---9--9—-9--9---|
|---2-2--2-2--2--2-2--3-3-3-----------------------------------------|

Chorus

|--------------------------------------|
|--------------------------------------|
|---4-4-4/11-11-11-11\7--7-7\5-5-5\4---|
|---x-x-x-x--x---x—-x-x--x-x-x-x-x-x---|
|---2-2-2/9--9---9—-9\5--5-5\3-3-3\2---|
|--------------------------------------| x 3


Then

|----------------------------------|
|----------------------------------|
|---4-4--4-4--4--4-4--7-7-7\4------|
|---4-4--4-4--4--4-4--7-7-7\4------|
|---2-2--2-2--2--2-2--5-5-5\2------|
|---2-2--2-2--2--2-2--5-5-5--------|


After 1st. Chorus (1:25)

|---------------12---------------------------------------------------------|
|---12-12-14-15----15-14---------------------------------------------------|
|-------------------------16-14--------------------------------------------|
|------------------------------16-14-16---16-16-17-16-14-------------------|
|--------------------------------------------------------17-16-14—12-14----|
|--------------------------------------------------------------------------|

|----------------------------12-14--14-14^-----------|
|------------------------14--------------------------|
|---------------12-14-16-----------------------------|
|------12-14-16--------------------------------------|
|---16-----------------------------------------------|
|----------------------------------------------------|

After 2nd. Chorus (2:42)

|--------------------------------------------------------------------------|
|--3-3-3-2/3-3-2-3-3-3---10-10-11-11---3-3-3-2/3-3-2-3-3/2--3--0-0-0-------|
|--4-4-4-4-4-4-4-4-4-4---10-10-11-11---4-4-4-4-4-4-4-4-4-4--4—-4-4-4-------|
|--------------------------------------------------------------------------|
|--------------------------------------------------------------------------|
|--------------------------------------------------------------------------|

|---------------------------------------------------------------------------|
|--3-3-3-2/3-3-2-3-3-3---10-10-11-11---13-13--14-14-16-16-17-17-18-18-20\11-|
|--4-4-4-4-4-4-4-4-4-4---10-10-11-11---13-13--14-14-16-16-17-17-18-18-20\11-|
|---------------------------------------------------------------------------|
|---------------------------------------------------------------------------|
|---------------------------------------------------------------------------|

            
            
Suggest correction
Creating personal tab
Creating personal tab
You can edit any tab online and save it as your Personal.

You can edit, replace or remove any tab part or add personal notes – all changes will be seen only by you.

Personal tabs can be accessed anytime from any device, even offline.
Learn more »
comments
print report bad tab
3 comments total.
0 reply
Rocker3829 286 Apr 06, 2004 08:00 PM

was about to tab this, this an old Evanescence demo for those who don't know. Good song, this is pretty acurrate.

0 reply
Rocker3829 286 Apr 06, 2004 08:00 PM

o yea this is also called Bleed, I must be dreaming is most common name given to this song but its not right

0 reply
Spikez_ 10 May 23, 2004 08:00 PM

i agree

guest
Wanna post a correction for this tab? Suggest correction