Oops, an error
Loading. Please wait.

Bring Me To Life Chords

version 2
version 2
43,878 views 24 this week
5 commentsread comments
1 2 3 4 5
accurate
x 11
add to favorites
launch autoscroll
font size
0
reset
transpose
0
reset
simplify chords
display chords
guitar tuner
Tab Pro tools
  • play this tab
  • loop segment
  • change instrument
  • show fretboard
  • metronome
×
Best way to learn
"Bring Me To Life"
Autoscroll
slow
fast
+/-
esc
set tempo
stop
Contributor
----------------------------------------------------------------------------
                  BRING ME TO LIFE ACOUSTIC - Evanescence
----------------------------------------------------------------------------
tabbed by: Avrill
e-mail: avrill_xx@yahoo.com



INTRO
e|--------------------------------------------|
B|--------------------------------------------|
G|--x-/9-9-9-9--9-9-9-9--9-9--9--9--9--9-9-9--|
D|--x-/9-9-7-9--9-9-9-9--9h10-10-10-10p9-9-9--|  x2
A|--x-/7-7-7-7--7-7-7-7--7-7--7--7--7--7-7-7--|
E|--------------------------------------------|

VERSE

e|--------------------------------------------|
B|--------------------------------------------|
G|--x-/9-9-9-9--9-9-9-9--9-9--9--9--9--9-9-9--|
D|--x-/9-9-7-9--9-9-9-9--9h10-10-10-10p9-9-9--|  x8
A|--x-/7-7-7-7--7-7-7-7--7-7--7--7--7--7-7-7--|
E|--------------------------------------------|
CHORUS

Em                G
   Wake me up inside
G                 D
   Wake me up inside
D                                 Em
call my name and save me from the dark 
Em                 G 
 Bid my blood to run
G                   D
 Before i come undone
D                Em               
Save me from the nothing I've become

VERSE

CHORUS

Em                G
   Wake me up inside
G                 D
   Wake me up inside
D                                 Em
call my name and save me from the dark 
Em                 G 
 Bid my blood to run
G                   D
 Before i come undone
D                Em               
Save me from the nothing I've become

Bring me to life
      C           D         Em               F#
e|---0-0-0-0-x--3-3-3-3-x-0-0-0-0-0-0-0-0--------------|
B|---1-1-1-1-x--2-2-2-2-x-0-0-0-0-0-0-0-0--------------|
G|---0-0-0-0-x--3-3-3-3-x-0-0-0-0-0-0-0-0------4-4-4-4-|
D|---2-2-2-2-x--0-0-0-0-x-2-2-2-2-2-2-2-2--4-4-4-4-4-4-|
A|---3-3-3-3-x----------x-2-2-2-2-2-2-2-2--5-5-5-5-5-5-|
E|-----------x----------x-0-0-0-0-0-0-0-0--5-5-5-5-5-5-|

Bring me to life
     C        E7         Em       E5
e|------------------0-0-0-0-0-0---------------|
B|----------5-5-5---0-0-0-0-0-0---------------|
G|--5-5-5---6-6-6---0-0-0-0-0-0---------------|
D|--5-5-5---x-x-x---2-2-2-2-2-2--2-2-2--2-2-0-|
A|--3-3-3---7-7-7---2-2-2-2-2-2--2-2-2--2-x-x-|
E|--3-3-3---7-7-7---0-0-0-0-0-0--0-0-0--2-3-7-|

Frozen inside without your touch, without your love baby
          Am            G?           F#m
e|----0--0--0--0-------------------------------------------|
B|---10--10-10-10---0--0--0--0--10-10-10-10----------------|
G|----9--9--9--9---12-12-12-12--11-11-11-11----------------|
D|----7--7--7--7---12-12-12-12--11-11-11-11---2-2-2--2-2-0-|
A|-----------------10-10-10-10--9--9--9--9----2-2-2--2-x-x-|
E|--------------------------------------------0-0-0--2-3-7-|

Only you are life among the death
       Am           G             Fm
e|--0--0--0--0----------------------------x-|
B|-10--10-10-10---0--0--0--0--10-10-10-10-x-|
G|--9--9--9--9---12-12-12-12--11-11-11-11-x-|
D|--7--7--7--7---12-12-12-12--11-11-11-11-x-|
A|---------------10-10-10-10--9--9--9--9--x-|
E|----------------------------------------x-|

CHORUS

Em                G
   Wake me up inside
G                 D
   Wake me up inside
D                                 Em
call my name and save me from the dark 
Em                 G 
 Bid my blood to run
G                   D
 Before i come undone
D                Em               
Save me from the nothing I've become


Bring me to life
       C           D5             Em
e|---0-0-0-0-0-------------0-0-0-0-0-0-0-0-0-|
B|---1-1-1-1-1-------------0-0-0-0-0-0-0-0-0-|
G|---0-0-0-0-0--7-7-7-7-7--0-0-0-0-0-0-0-0-0-|
D|---2-2-2-2-2--7-7-7-7-7--2-2-2-2-2-2-2-2-2-|
A|---3-3-3-3-3--5-5-5-5-5--2-2-2-2-2-2-2-2-2-|
E|--------------5-5-5-5-5--0-0-0-0-0-0-0-0-0-|

Bring me to life
    E5                       C5     D5
e|------------------------------------------|
B|------------------------------------------|
G|-------------------------5-5-5-5--7-7-7-7-|
D|--2-2-2-2-2-2-2-2-2-0-0--5-5-5-5--7-7-7-7-|
A|--2-2-2-2-2-2-x-x-x-x-x--3-3-3-3--5-5-5-5-|
E|--0-0-0h2-2-2h3-3-3-7-7--3-3-3-3--5-5-5-5-|

OUTRO
e|--------------------------------------------|
B|--------------------------------------------|
G|--x-/9-9-9-9--9-9-9-9--9-9--9--9--9--9-9-9--|
D|--x-/9-9-7-9--9-9-9-9--9h10-10-10-10p9-9-9--|  
A|--x-/7-7-7-7--7-7-7-7--7-7--7--7--7--7-7-7--|
E|--------------------------------------------|

this is the link to the video: http://www.youtube.com/watch?v=bc00qPujRjg
comments
print report bad tab
5 comments total. Showing first comments.
0 reply
ChosenIA wrote on May 13 2010, 03:10 pm

e|-------------------------------0-----0------|
B|-------------------------------0-----0------|
G|--x-/9-9-9-9--9-9-9-9--9-9--9--9--9--9-9-9--|
D|--x-/9-9-7-9--9-9-9-9--9h10-10-10-10p9-9-9--|
A|--x-/7-7-7-7--7-7-7-7--7-7--7--7--7--7-7-7--|
E|--------------------------------------------|
just sayin lol

0 reply
slipknot836 wrote on August 19 2011, 11:37 pm

Nice tab, seems aaccurate enough :P

0 reply
slipknot836 wrote on August 19 2011, 11:37 pm

Accurate* Sorry

I want to post or [tab]
guest
You may want to rate the tab now too:
select rating
Please do not post tabs as comments. Select "correction" instead!