Oops, an error
Loading. Please wait.

Bring Me To Life Tab

version 10
130,186 views 618 this week
8 commentsread comments
1 2 3 4 5
accurate
x 28
add to favorites
launch autoscroll
font size
0
reset
how to read this tab
guitar tuner
Autoscroll
slow
fast
+/-
esc
set tempo
stop
Help us to improve Ultimate-Guitar.com Take our survey!
×
Song:      "Bring Me To Life"
Artist:    Evanescence
Album:     Fallen

Tabbed by: Phillip Adrian Trujeque
Guitarist/Bassist of:
http://www.ButcherBand.com
http://www.EchoPrizm.net
http://www.Trujeque.com
                                 
Any comments, questions, jokes, threats, suggestions,
corrections, thoughts or concerns...
Please feel free to email me: Philthy@Trujeque.com
___________________________________________________________________________
Standard Tuning
Guitar fades in...
          1       2       3       4    
        E|-----------------------------||
        B|-----------------------------||
        G|-----------------------------||
        D|---2<------------------------||
        A|---2<------------------------||
        E|---0<------------------------||
 I've become so numb.


 [Intro] 

  1       2       3       4       1       2       3       4
E|-----------------------------|--------------------------------||
B|-----------------------------|--------------------------------||
G|-----------------------------|--------------------------------||
D|2-2---2-2---2-2---2-2--------|------2-2---2-2---2-2---2-2-----||
A|2-2---2-2---2-2---2-2--------|------2-2---2-2---2-2---2-2----3||
E|0-0---0-0---0-0---0-0--------|------0-0---0-0---0-0---0-0--0--||

  1       2       3       4       1       2       3       4
E|-----------------------------|--------------------------------||Repeat 
B|-----------------------------|--------------------------------|| 2x's
G|-----------------------------|--------------------------------||
D|2-2---2-2---2-2---2-2--------|------2-2---2-2---2-2-----2-----||
A|2-2---2-2---2-2---2-2--------|------2-2---2-2---2-2-----2----3||
E|0-0---0-0---0-0---0-0--------|------0-0---0-0---0-0-----0--0--||


 [Chorus I]

 E5             G5             D5             E5
E|--------------|--------------|--------------|--------------||
B|--------------|--------------|--------------|----5---------||
G|--------------|--------------|7-------------|----4---------||
D|2-------------|5-------------|7-------------|----2---------||
A|2-------------|5-------------|5-------------|2-------2-----||
E|0-------------|3-------------|5-------------|0-------0-----||
  Wake me up!  I Can't wake up! Save me! 

  E5             G5             D5             E5
E|--------------|--------------|--------------|--------------||
B|--------------|--------------|--------------|--------------||
G|--------------|--------------|7-------------|--------------||
D|2-------------|5-------------|7-------------|2-------------||
A|2-------------|5-------------|5-------------|2-------------||
E|0-------------|3-------------|5-------------|0-------------||
  Wake me up!  I Can't wake up! Save me! 
 

  [Break Riff]

E|-----------------------------||
B|-----------------------------||
G|-----------------------------||
D|2-2---2-2---2-2---2-2--------||
A|2-2---2-2---2-2---2-2------*3|| *Slight pinch
E|0-0---0-0---0-0---0-0---0-0--||
 

[Verse II]

  1       2       3       4       1       2       3       4
E|-----------------------------|--------------------------------| 
B|-----------------------------|--------------------------------|
G|-----------------------------|--------------------------------|
D|2-2---2-2---2-2---2-2---22---|------2-2---2-2---2-2---2-------|
A|2-2---2-2---2-2---2-2---22-22|------2-2---2-2---2-2---2------3|
E|0-0---0-0---0-0---0-0---00-00|------0-0---0-0---0-0---0--0-0--|


  1       2       3       4       1       2       3       4
E|-----------------------------|--------------------------------||Repeat
B|-----------------------------|--------------------------------|| 2x's
G|-----------------------------|--------------------------------||
D|3-3---3-3---3-3---3-3---33---|------2-2---2-2---2-2---2-------||
A|2-2---2-2---2-2---2-2---22-22|------2-2---2-2---2-2---2------3||
E|0-0---0-0---0-0---0-0---00-00|------0-0---0-0---0-0---0--0-0--||
 

[Chorus II] (same as first chorus)

 
[Bridge]

  C5             D5            
E|--------------|--------------|
B|--------------|--------------|
G|5-------------|7-------------|
D|5-------x-x-*x|7-------x-x-*x|
A|3-------x-x--x|5-------x-x--x|
E|3-------x-x--x|5-------x-x--x|
   come.   Bring me    to       
 
  E5
E|-----------------------------|--------------------------------|Repeat
B|-----------------------------|--------------------------------| 2x's
G|-----------------------------|--------------------------------|
D|2-2---2-2---2-2---2-2---22---|------2-2---2-2---2-2---2-------|
A|2-2---2-2---2-2---2-2---22-22|------2-2---2-2---2-2---2------3|
E|0-0---0-0---0-0---0-0---00-00|------0-0---0-0---0-0---0--0-0--|
..life
           
  C5             D5             E5                           (N.C.)
E|--------------|--------------|-----------------------------|-----------||
B|--------------|--------------|-----------------------------|-----------||
G|5-------------|7-------------|-----------------------------|-----------||
D|5-------x-x--x|7-------x-x--x|2-2---2-2---2-2---2-2---2----|-----------||
A|3-------x-x--x|5-------x-x--x|2-2---2-2---2-2---2-2---2--22|----------2||
E|3-------x-x--x|5-------x-x--x|0-0---0-0---0-0---0-0---0--00|0--2--3----||
 come.     Bring me    to       life...


[Bridge / Interlude]

 *The guitar is inaudible here

  Am            G             F#           (N.C.)
E|-------------|-------------|-------------|--------------||
B|-------5-----|-------7-----|-------------|--------------||
G|-----5---5---|-----7---7---|11-----------|--------------||
D|---7-------7-|---9-------9-|11-----------|--------------||
A|0------------|0------------|9------------|------------2-||
E|-------------|-------------|-------------|0---2---3--(7)||
    Frozen inside without your touch without your love darling

   Am            G             F#           (N.C.)
E|-------------|-------------|-------------|--------------||
B|-------5-----|-------7-----|-------------|--------------||
G|-----5---5---|-----7---7---|11-----------|--------------||
D|---7-------7-|---9-------9-|11-----------|--------------||
A|0------------|0------------|9------------|--------------||
E|-------------|-------------|-------------|--------------||


  [Same idea as the intro]

  1       2       3       4       1       2       3       4
E|-----------------------------|--------------------------------|| 
B|-----------------------------|--------------------------------||
G|-----------------------------|--------------------------------||
D|2-2---2-2---2-2---2-2----22--|------2-2---2-2---2-2---2-------||
A|2-2---2-2---2-2---2-2----22-2|------2-2---2-2---2-2---2------3||
E|0-0---0-0---0-0---0-0----00-0|------0-0---0-0---0-0---0----0--||
  all this time i can't believe i couldn't see

  1       2       3       4       1       2       3       4
E|-----------------------------|--------------------------------|| Play 
B|-----------------------------|--------------------------------|| 2x's
G|-----------------------------|--------------------------------||
D|3-3---3-3---3-3---3-3----33--|------2-2---2-2---2-2---2-------||
A|2-2---2-2---2-2---2-2----22-2|------2-2---2-2---2-2---2------3||
E|0-0---0-0---0-0---0-0----00-0|------0-0---0-0---0-0---0----0--||


[Chorus III]

  E5             G5             D5             
E|--------------|--------------|--------------|--------------||
B|--------------|--------------|--------------|--------------||
G|--------------|--------------|7-------------|----------x\--||
D|2-------------|5-------------|7-------------|----------x\--||
A|2-------------|5-------------|5-------------|----------x\--||
E|0-------------|3-------------|5-------------|----------x\--||
  Wake me up!  I Can't wake up! Save me! 

  E5             G5             D5             E5
E|--------------|--------------|--------------|--------------||
B|--------------|--------------|--------------|--------------||
G|--------------|--------------|7-------------|--------------||
D|2-------------|5-------------|7-------------|2-------------||
A|2-------------|5-------------|5-------------|2-------------||
E|0-------------|3-------------|5-------------|0-------------||
  Wake me up!  I Can't wake up! Save me! 
 


  C5             D5             E5                            N.C.
E|--------------|--------------|-----------------------------|------------||
B|--------------|--------------|-----------------------------|------------||
G|5-------------|7-------------|-----------------------------|------------||
D|5-------------|7-------------|2-2---2-2---2-2---2-2---2----|------------||
A|3-------------|5-------------|2-2---2-2---2-2---2-2---2--22|----------2-||
E|3-------------|5-------------|0-0---0-0---0-0---0-0---0--00|0--2--3-----||
                                             I've been livin' a lie...

  C5             D5             E5       Begin fade...        N.C.  
E|--------------|--------------|-----------------------------|------------||
B|--------------|--------------|-----------------------------|------------||
G|5-------------|7-------------|-----------------------------|------------||
D|5-------------|7-------------|2----------------------------|>-----------||
A|3-------------|5-------------|2----------------------------|>-----------||
E|3-------------|5-------------|0----------------------------|>-----------||
        Bring    me     to      life!
 


bring me to life

how can you see into my eyes like open doors
leading you down into my core
where i've become so numb without a soul my spirit sleeping somewhere cold 
until you find it there and lead it back home wake me up inside
wake me up inside
call my name and save me from the dark
bid my blood to run
before i come undone
save me from the nothing i've become

now that i know what i'm without
you can't just leave me
breathe into me and make me real
bring me to life

wake me up inside
wake me up inside
call my name and save me from the dark
bid my blood to run
before i come undone
save me from the nothing i've become
bring me to life

frozen inside without your touch without your love darling only you are the life among the dead

all this time i can't believe i couldn't see
kept in the dark but you were there in front of me
i've been sleeping a thousand years it seems
got to open my eyes to everything
without a thought without a voice without a soul
don't let me die here
there must be something more
bring me to life



************************************

| x    Dead note
|(n)  Ghost note
| >    Accented note

************************************
Suggest correction
comments
print report bad tab
8 comments total. Showing first comments. show 2 bad comments
+1 reply
TheGuitarDreams 101 wrote on January 17 2006, 08:57 pm

sounds right. but since I'm trying something new, i don't know. Because I'm playing this combined with Linkin Park's Somewhere I Belong...they have the same distortion...but it'll sound right on standard tuning.

guest
You may want to rate the tab now too:
select rating
Please do not post tabs as comments. Select "correction" instead!