Oops, an error
Loading. Please wait.

Bring Me To Life Bass Tab

version 5
version 5
1,085 views 1 this week
1 commentread comment
1 2 3 4 5
3 more votes to show rating
add to favorites
launch autoscroll
font size
0
reset
guitar tuner
Autoscroll
slow
fast
+/-
esc
set tempo
stop
Help us to improve Ultimate-Guitar.com Take our survey!
×
Author
Difficulty
Tuning
novice
D A D G B E
BRING ME TO LIFE - EVANESCENCE
Tabbed by: zakwolf
Tuning: Drop D

Intro: no bass
Verse:
G|----------------------------------|
D|-------------------------------3--|
A|----------------------------------|
D|-22-22-22-22-2222-22-22-22-2-22---|

Chorus(never beyond the 5th fret):

G|----------------------------------------------------------------|
D|-----2-------------5-------------0-------------2--------20------|
A|----------------------------------------------------------20----|
D|-2-22--22-22---5-55--55-55---0-00--00-00---2-22--22-22----------|

Breakdown:

G|----------------------2---2------------------------2|
D|------------------2h5---4--5-4-----------------4--4-|
A|-----------2--0-0---------------------------2h5-----|
D|--2--4--5----------------------5-4-2---444----------| x2 then play verse

The "all of this time i can't believe..." part is just the verse. This is pretty 
much the whole song.
Suggest correction
Give kudos to tab author, rate the tab!
1 2 3 4 5
comments
print report bad tab
1 comment total.
-1 reply
sd6407 10 May 26, 2014 12:54 PM

Space oddity

guest
You may want to rate the tab now too:
select rating
Wanna post a correction for this tab? Suggest correction