Oops, an error
Loading. Please wait.

Bring Me To Life Tab

version 8
13,829 views 33 this week
1 commentread comment
1 2 3 4 5
accurate
x 6
add to favorites
launch autoscroll
font size
0
reset
how to read this tab
guitar tuner
Tab Pro tools
  • play this tab
  • loop segment
  • change instrument
  • show fretboard
  • metronome
Autoscroll
slow
fast
+/-
esc
set tempo
stop
Tabbed By: Dovanditz
Legend   :
    >=Down Stroke
    <=Up Stroke
    x=Palm Mute 
    \=Slide
    H=Hammer On
    P=Pull Off
    ^=Bend
    ~=Vibrato
    #=Let Ring
Tuning   : E A D G B e


Intro (Guitar 1 Distorted)
e|----------------------------|
B|----------------------------|
G|-------------------9--------|
D|----/9--7--9—-9/10---9------|2x
A|----------------------------|
E|----------------------------|

Verse 1 (Guitar 1 Distorted) on the first verse only
e|----------------------------|
B|----------------------------|
G|-------------------9--------|
D|----/9--7--9—-9/10---9------| (repeat up to chorus)
A|----------------------------|
E|----------------------------|

Verse 1 & 2 (Guitar 2 Distorted)
e|----------------------------------------|
B|----------------------------------------| 
G|----------------------------------------| 
D|--22-22-22-22-xxxx--22-22-22-2-xx-------|
A|--22-22-22-22-xxxx--22-22-22-2-xx-3~----|
E|--00-00-00-00-xxxx--00-00-00-0-xx-------|

|-----------------------------------------|
|-----------------------------------------| 
|-----------------------------------------| 
|--55-55-55-55-xxxx--55-55-55-5-xx--------| (repeat up to chorus)
|--55-55-55-55-xxxx--55-55-55-5-xx-3~-----|
|--33-33-33-33-xxxx--33-33-33-3-xx--------|

Chorus 1
e|--------------------------------|    |--------------------| 
B|--------------------------------|    |--------------------| 
G|----------7-------9-------9-----| x2 |--------------------|
D|--2---5---7---2---9--22---9-----|    |--22-22-22-2-xx-----|
A|--2-#-5-#-5-#-2-/-7--22-/-7-----|    |--22-22-22-2-xx-3~--|
E|--0---3---5---0------00---------|    |--00-00-00-0-xx-----|



Chorus 2 
e|--------------------------------|    |---------------------------------------------|
B|--------------------------------|    |---------------------------------------------|
G|----------7-------9-------9-----| x2 |--5----xx--x7----xx--------------------------|
D|--2---5---7---2---9--22---9-----|    |--5-\0-xx--x7-\0-xx----22-22-22-22-xxxx------|
A|--2-#-5-#-5-#-2-/-7--22-/-7-----|    |--3----xx--x5----xx--0-22-22-22-22-xxxx------|
E|--0---3---5---0------00---------|    |-------xx--x-----xx--0-00-00-00-00-xxxx------|
							      	 |________________|
								      repeat 2x
							      
|------------------------------------------|
|------------------------------------------|
|--5----xx--7----xx------------------------|
|--5-\0-xx--7-\0-xx----22-22-22-22-xxxx----|
|--3----xx--5----xx--0-22-22-22-22-xxxx----|
|-------xx-------xx--0-00-00-00-00-xxxx----|

Bridge
e|-------------------------------|
B|-------------------------------|
G|-------------------------------|
D|---2-4-5---9--7---5---4--------| 2x
A|---2-4-5-/-9--7-#-5-#-4-#------|
E|---0-2-3---7--5---3---2--------|

Verse 3 (Guitar 1 & 2)
e|----------------------------------------|
B|----------------------------------------| 
G|----------------------------------------| 
D|--22-22-22-22-xxxx--22-22-22-2-xx-------|
A|--22-22-22-22-xxxx--22-22-22-2-xx-3~----|
E|--00-00-00-00-xxxx--00-00-00-0-xx-------|

|-----------------------------------------|
|-----------------------------------------| 
|-----------------------------------------| 
|--55-55-55-55-xxxx--55-55-55-5-xx--------|
|--55-55-55-55-xxxx--55-55-55-5-xx-3~-----|
|--33-33-33-33-xxxx--33-33-33-3-xx--------|

e|----------------------------------------|
B|----------------------------------------| 
G|----------------------------------------| 
D|--22-22-22-22-xxxx--22-22-22-2-xx-------|
A|--22-22-22-22-xxxx--22-22-22-2-xx-3~----|
E|--00-00-00-00-xxxx--00-00-00-0-xx-------|

|-----------------------------------------|
|-----------------------------------------| 
|-----------------------------------------| 
|--55-55-55-55-xxxx---99-99-99-99--xxxx---| 
|--55-55-55-55-xxxx---99-99-99-99--xxxx---|
|--33-33-33-33-xxxx---77-77-77-77--xxxx---|
comments
print report bad tab
1 comment total.
0 reply
Paul Lambeth wrote on March 12 2007, 08:31 pm

They might not play it in Standard tuning normally but it's perfect in my opinion :D! Maybe a couple of harmonics on the verse but otherwise perfect.

I want to post or [tab]
guest
You may want to rate the tab now too:
select rating
Please do not post tabs as comments. Select "correction" instead!