Oops, an error
Loading. Please wait.

Bring Me To Life Tab

5,187 views 9 this week
no commentswrite comment
1 2 3 4 5
x 5
add to favorites
launch autoscroll
font size
0
reset
how to read this tab
guitar tuner
Autoscroll
slow
fast
+/-
esc
set tempo
stop
Help us to improve Ultimate-Guitar.com Take our survey!
×
cool song by evanescence
tabber: moogle
tuning: dropped d 
i'm not sure if the bridge is right but it sounds close to me

~ =let note ring
/ =slide up
\ =slide down
pm=palm mute
p =pull off
h=hammer on

guitar intro

e:------------
b:------------
g:---------9--
d:-9-7-9-10--9
a:------------
D:------------


back up guitar plays verse

e:----------------------------------
b:----------------------------------
g:----------------------------------
d:-2-0-2-0-2-0-2-0--2-0-2-0-2-0-2-0-
a:-2-0-2-0-2-0-2-0--2-0-2-0-2-0-2-0-
D:-2-0-2-0-2-0-2-0--2-0-2-0-2-0-2-0-  pm

back up guitar continued

e:------------------------------
b:------------------------------
g:----------------7-7-7-7-7-7-7-
d:-5-5-5-5-5-5-5--7-7-7-7-7-7-7-
a:-5-5-5-5-5-5-5--5-5-5-5-5-5-5-
D:-5-5-5-5-5-5-5---------------- pm

chorus

e:---------------------------------------
b:---------------------------------------
g:-4-4-4-4-4-4--7-7-7-7-7-7--------------
d:-4-4-4-4-4-4--7-7-7-7-7-7--0-0-0-0-0-0-
a:-2-2-2-2-2-2--5-5-5-5-5-5--0-0-0-0-0-0-
D:-2-2-2-2-2-2--5-5-5-5-5-5--0-0-0-0-0-0-

chorus continued

e:--------
b:--------
g:-5-4-2-4
d:-5-4-2-4
a:-3-2-0-2
D:--------

music and light singing

e:-----------------------------------------------
b:-----------------------------------------------
g:-5-5-5--7-7-7----------------------------------
d:-5-5-5--7-7-7--0-2-0-2-0-2-0-2--0-2-0-2-0-2-0-2
a:-3-3-3--5-5-5--0-2-0-2-0-2-0-2--0-2-0-2-0-2-0-2
D:---------------0-2-0-2-0-2-0-2--0-2-0-2-0-2-0-2

bridge

e:---------------------------------------
b:---------------------------------------
g:-6--6-6-6--3--3-3-3------------3--3-3-3
d:-6--6-6-6--3--3-3-3--2--2-2-2--3--3-3-3  played twice
a:-4--4-4-4--5--5-5-5--2--2-2-2--1--1-1-1
D:---------------------2--2-2-2----------

ending

e:---
b:---
g:---
d:-2~
a:-2~
D:-2~

order
guitar intro
verse
chorus
verse
chorus
music ands light singing
bridge
verse
chorus
music and singing
ending
Suggest correction
comments
print report bad tab
guest
You may want to rate the tab now too:
select rating
Wanna post a correction for this tab? Suggest correction