Oops, an error
Loading. Please wait.

Call Me When Youre Sober Bass Tab

version 3
version 3
1,217 views 3 this week
no commentswrite comment
1 2 3 4 5
please rate
add to favorites
launch autoscroll
font size
0
reset
guitar tuner
Autoscroll
slow
fast
+/-
esc
set tempo
stop
Help us to improve Ultimate-Guitar.com Take our survey!
×
Author
This might not be correct but, it's the way I play it in my band and it sounds awesome

INTRO(after piano):

G|-------------------|
D|-------------------|   x4
A|-------------------|
D|--0-0h2-2-22-22-2--|


VERSE:

G|-------------------|
D|-------------------|   x8
A|-------------------|
D|--0-0--0h2~--------|


CHORUS:

G|-----------------------|-----------------------|
D|--5--5-5-5-5--5-5-5-5--|--4--4-4-4-4--4-4-4-4--|
A|--3--3-3-3-3--3-3-3-3--|--2--2-2-2-2--2-2-2-2--|
D|-----------------------|-----------------------|

G|--------------|-----------------|
D|-----3--------|--5-----5--------|
A|-----5--------|--3-----3--------|
D|--2-----2--1--|-----1-----1--5--|


VERSE:

G|-------------------|
D|-------------------|   x8
A|-------------------|
D|--0-0--0h2~--------|


CHORUS:

G|-----------------------|-----------------------|
D|--5--5-5-5-5--5-5-5-5--|--4--4-4-4-4--4-4-4-4--|
A|--3--3-3-3-3--3-3-3-3--|--2--2-2-2-2--2-2-2-2--|
D|-----------------------|-----------------------|

G|--------------|-----------------|
D|-----3--------|--5-----5--------|
A|-----5--------|--3-----3--------|
D|--2-----2--1--|-----1-----1--5--|


INTERLUDE:

G|--------------------------------|
D|--------------------------------|
A|----------5---------------5--4--|
D|--7--0-2-----2----7--0-2--------|


CHORUS:

G|-----------------------|-----------------------|
D|--5--5-5-5-5--5-5-5-5--|--4--4-4-4-4--4-4-4-4--|
A|--3--3-3-3-3--3-3-3-3--|--2--2-2-2-2--2-2-2-2--|
D|-----------------------|-----------------------|

G|--------------|-----------------|
D|-----3--------|--5-----5--------|
A|-----5--------|--3-----3--------|
D|--2-----2--1--|-----1-----1--5--|

if you find the chorus difficult then just play the 3's and 2's on the A string instead
the power chords. but it sounds better with them.

-----------------------------------------------------------------------------
                                   TAB HELP
-----------------------------------------------------------------------------

h = hammer on
~ = let ring
Suggest correction
Give kudos to tab author, rate the tab!
1 2 3 4 5
comments
print report bad tab
guest
You may want to rate the tab now too:
select rating
Wanna post a correction for this tab? Suggest correction