Oops, an error
Loading. Please wait.

Call Me When Youre Sober Tab

version 4
12,362 views 18 this week
8 commentsread comments
1 2 3 4 5
accurate
x 8
add to favorites
launch autoscroll
font size
0
reset
how to read this tab
guitar tuner
Autoscroll
slow
fast
+/-
esc
set tempo
stop
Help us to improve Ultimate-Guitar.com Take our survey!
×
Author
Difficulty
Tuning
novice
D A D G B E
|| CALL ME WHEN YOU'RE SOBER ||
|| EVANESCENCE ||
|| THE OPEN DOOR || 

Tabbed by BaXteR.

DROP D

INTRO

(Part One - Piano)

E5 - C5 - E5 - Eb5
G5 - Eb5 - G - C  [G]

||-----------------------------------||
||-----------------------------------||
||-----------------------------------||
||--2--10--2--1----5--1--5--10----5--||
||--2--10--2--1----5--1--5--10----5--||
||--2--10--2--1----5--1--5--10----5--||


***(Part Two - Guitar)***

D5 E5

||--------3p2-2-0---------3p2-2------||
||------------------------------1----||
||-----------------------------------||
||--0--2-----------0-0h2-------------||
||--0--2-----------0-0h2-------------||
||--0--2-----------0-0h2-------------||

||---------3p2-2-0---------3p2-2-----||
||-------------------------------3---||
||-----------------------------------||
||--0-0h2-----------0-0h2------------||
||--0-0h2-----------0-0h2------------||
||--0-0h2-----------0-0h2------------||

VERSE

(Part One)

D5 E5

||-----------------------------------||
||-----------------------------------||
||-----------------------------------||
||------0-2-----------------0-2------||
||------0-2-----------------0-2------||
||------0-2-----------------0-2------||

||-----------------------------------||
||-----------------------------------||
||-----------------------------------||
||------0-2-----------------0-2------||
||------0-2-----------------0-2------||
||------0-2-----------------0-2------||


***(Part Two)***

||--------3p2-2-0---------3p2-2------||
||------------------------------1----||
||-----------------------------------||
||--0--2-----------0-0h2-------------||
||--0--2-----------0-0h2-------------||
||--0--2-----------0-0h2-------------||

||---------3p2-2-0---------3p2-2-----||
||-------------------------------3---||
||-----------------------------------||
||--0-0h2-----------0-0h2------------||
||--0-0h2-----------0-0h2------------||
||--0-0h2-----------0-0h2------------||


PRECHORUS

C5 - B5

||----------------||
||----------------||
||----------------||
||--10-10-xx-9-9--||
||--10-10-xx-9-9--||
||--10-10-xx-9-9--||


CHORUS

E5 - C5 - E5 - Eb5
G5 - Eb5 - G - C  [G]

||-----------------------------------||
||-----------------------------------||
||-----------------------------------||
||--2--10--2--1----5--1--5--10----5--||
||--2--10--2--1----5--1--5--10----5--||
||--2--10--2--1----5--1--5--10----5--||


INTERLUDE 

(Piano between Power Chords)

D5 E5

||-----------------------------------||
||-----------------------------------||
||-----------------------------------||
||------0-2-----------------0-2------||
||------0-2-----------------0-2------||
||------0-2-----------------0-2------||


VERSE

(Part One)

D5 E5

||-----------------------------------||
||-----------------------------------||
||-----------------------------------||
||------0-2-----------------0-2------||
||------0-2-----------------0-2------||
||------0-2-----------------0-2------||

||-----------------------------------||
||-----------------------------------||
||-----------------------------------||
||------0-2-----------------0-2------||
||------0-2-----------------0-2------||
||------0-2-----------------0-2------||


***(Part Two)***

||--------3p2-2-0---------3p2-2------||
||------------------------------1----||
||-----------------------------------||
||--0--2-----------0-0h2-------------||
||--0--2-----------0-0h2-------------||
||--0--2-----------0-0h2-------------||

||---------3p2-2-0---------3p2-2-----||
||-------------------------------3---||
||-----------------------------------||
||--0-0h2-----------0-0h2------------||
||--0-0h2-----------0-0h2------------||
||--0-0h2-----------0-0h2------------||


PRECHORUS

C5 - B5

||----------------||
||----------------||
||----------------||
||--10-10-xx-9-9--||
||--10-10-xx-9-9--||
||--10-10-xx-9-9--||


CHORUS

E5 - C5 - E5 - Eb5
G5 - Eb5 - G - C  [G]

||-----------------------------------||
||-----------------------------------||
||-----------------------------------||
||--2--10--2--1----5--1--5--10----5--||
||--2--10--2--1----5--1--5--10----5--||
||--2--10--2--1----5--1--5--10----5--||


BRIDGE 

(Part One - Synth)

C5 - Eb5 - G - G
C5 - Eb5 - G - G

Eb5 - G


(Part Two - Guitar)

A5 - D5 E5 - C5 - B5
A5 - D5 E5 - C5 - B5

||----------------------------------||
||----------------------------------||
||----------------------------------||
||--7--0-2--10--2----7--0-2--10--9--||
||--7--0-2--10--2----7--0-2--10--9--||
||--7--0-2--10--2----7--0-2--10--9--||


CHORUS

E5 - C5 - E5 - Eb5
G5 - Eb5 - G 

||--------------------------||
||--------------------------||
||--------------------------||
||--2--10--2--1----5--1--5--||
||--2--10--2--1----5--1--5--||
||--2--10--2--1----5--1--5--||

GAME OVER  >>>  Time to rate and comment =]

but before that

*** Just a quick note. ***

Verse parts with the asterisks can be played like this:

||-------------------------------------------------------------------||
||-------------------------------------------------------------------||
||-------------------------------------------------------------------||
||--0-2---2h5t17---2h5t16---2h5t14---0h2---2h5t17---2h5t16---2h5t12--||
||--0-2------------------------------0h2-----------------------------||
||--0-2------------------------------0h2-----------------------------||

||-------------------------------------------------------------------||
||-------------------------------------------------------------------||
||-------------------------------------------------------------------||
||--0-2---2h5t17---2h5t16---2h5t14---0h2---2h5t17---2h5t16---2h5t10--||
||--0-2------------------------------0h2-----------------------------||
||--0-2------------------------------0h2-----------------------------||

Guitar-burner : THANKS =]
Littleleo88   : SCREW YOU =]
Suggest correction
What's this?
You can suggest a correction to this tab. Community and Mods will review your correction and vote to approve or reject it.
comments
print report bad tab
8 comments total. Showing first comments.
0 reply
paddypower27 108 wrote on September 29 2006, 11:46 am

is it in drop d tuning? i can only tell from there being the same numbers on the top 3 strings, but how are beginners gona know this?!

0 reply
Guitar-burner 104 wrote on September 30 2006, 05:06 pm

This tab is good but you have done something wrong:

h=hammer on
t=tap

-----------------------------------------------------------------
-----------------------------------------------------------------
-----------------------------------------------------------------
-0-2---2h5t17---2h5t16---2h5t14---0-2---2h5t17---2h5t16---2h5t12-
-0-2------------------------------0-2----------------------------
-0-2------------------------------0-2----------------------------

------------------------------------------------------------------
------------------------------------------------------------------
------------------------------------------------------------------
-0-2---2h5t17---2h5t16---2h5t14----0-2---2h5t17---2h5t16---2h5t10-
-0-2-------------------------------0-2----------------------------
-0-2-------------------------------0-2----------------------------

If you could put this in that would be great

0 reply
littleleo88 372 wrote on October 6 2006, 02:16 pm

wrong tuning, wrong notes

guest
You may want to rate the tab now too:
select rating
Please do not post tabs as comments. Select "correction" instead!