Oops, an error
Loading. Please wait.

Call Me When Youre Sober Tab

version 6
4,799 views 3 this week
3 commentsread comments
1 2 3 4 5
please rate
add to favorites
launch autoscroll
font size
0
reset
how to read this tab
guitar tuner
Autoscroll
slow
fast
+/-
esc
set tempo
stop
Help us to improve Ultimate-Guitar.com Take our survey!
×
Author
Tuning
D A D G B E
Pre-chorus: Artist: Evanescence
Song: Call Me When You’re Sober
Tuning: Drop D
This song is atleast 98% correct since I based it off of the sheet music!Which means its 
the recorded vesion.
Intro:(with piano) Guitar 1
5/09/07 Changed (7-7-7-6) to (5-5-5-4)----------------------------------------------|
e|-0------------------------------------0-------------------------------------------|
b|-0-----------------5------------------0-------------------------------------------|
g|-0-----------------5------------------0----------------------0--------------------|
d|-2-----------------5------------------2----------------------1--------------------|
a|-2-----------------3------------------2----------------------1--------------------|
d|-2------------------------------------2----------------------1--------------------|
    Don’t cry to me. If you loved me, You would be here with me.

|----------------------------------------------------------------------------------|
|-0-----------------------------------------------------------4--------------------|
|-4---------------0------------------4------------------------5------------------4-|
|-5---------------1------------------5------------------------5------------------5-|
|-5---------------1------------------5------------------------3------------------5-|
|-5---------------1------------------5-------------------------------------------5-|
  You want me?  Come find me.  Make up your mind._______________

Guitar 1
|----------------------|
|----------------------|
|----------------------|
|-0--0-0-2--2-2-2-2-2--|
|-0--0-0-2--2-2-2-2-2--|
|-0--0-0-2--2-2-2-2-2--| X4
              . . . .
Guitar 2
|-------------------------|-----------------------|--------------|
|-------------------------|-----------------------|-(same as ----|
|-------------/12\-11\-9--|-------------/12\11\-7-|-first--------|
|-0--0-0-2--2-/--\---\----|-0--0-0-2--2-/--\--\---|-measure)-----|
|-0--0-0-2--2-/10\  9\-7--|-0--0-0-2--2-/10\ 9\-5-|--------------|
|-0--0-0-2--2-------------|-0--0-0-2--2-----------|--------------|

|--------------------------|
|--------------------------|
|-------------/12\-11\-5---|
|-0--0-0-2--2-/--\---\-----|
|-0--0-0-2--2-/10\  9\-3---|
|-0--0-0-2--2--------------|

Guitar 1  verse 1
|------------------|
|------------------|
|------------------|
|-0--0-2-----------|
|-0--0-2-2-2-2-2-2-|
|-0--0-2-2-2-2-2-2-| X8
         . . . . .
Guitar 1  Pre-chorus
|-------------2---2-2--2-|
|-5---5-5-5---0---0-0--0-|
|-5---5-5-5---2---2-2--2-|
|-5---5-5-5---1---1-1--1-|
|-3---3-3-3---2---2-2--2-|
|------------------------|

Both Guitars                              Chorus
|-------------------------------------------------------------------------------|
|--------------5---5-5-----------------------------------------------5----------|
|--------------5---5-5--------------------------4---4-4--------------5--------4-|
|---2---2-2----5---5-5----2---2-2----1---1-1----5---5-5----1---1-1---5--------5-|
|---2---2-2----3---3-3----2---2-2----1---1-1----5---5-5----1---1-1---3--------5-|
|---2---2-2---------------2---2-2----1---1-1----5---5-5----1---1-1------------5-|

Guitar 1             interlude
|-------------------------|
|-------------------------|
|-------------------------|
|-0--0-2---------0--0-2---|
|-0--0-2---------0--0-2---|
|-0--0-2---------0--0-2---|

Verse:


Chorus:


Guitar 1                                Bridge:
|---------------------------------------------|
|-5-------------4-----------------------------|
|-5-------------5------------------4----------|
|-5-------------5------------------5----------|
|-3-------------3------------------5----------|
|----------------------------------5----------|
  You never call me when your sober

|-----------------------------------------------|
|--------------5------------4-------------------|
|-5------4-----5------------5---------------4---|
|-5------5-----5------------5---------------5---|
|-5------5-----3------------3---------------5---|
|-5------5----------------------------------5---|
                        You only want it cause it’s over,

|--------------------------------|
|--------------------------------|
|------------4-------------------|
|-1----------5-----------1-------|
|-1----------5-----------1-------|
|-1----------5-----------1-------|
     Oh, it’s over.____________

|-0---0---0-------------------------------2--------|
|-1---1---1-----------------------5-------0--------|
|-2---2---2------2----------------5-------2--------|
|-2---2---2------4------2---------5-------1----2---|
|-0---0---0------0------2---------3-------2----2---|
|----------------0------2----------------------2---|
  How__________ could I___ have burned paradise?

|---------------------------------|
|-1---1---1-----------------------|
|-2---2---2-----2-----------------|
|-2---2---2-----4--------2--------|
|-0---0---0-----0--------2--------|
|---------------0--------2--------|
   How _______ could I?________


|---------------------2---|
|-5---5---5---5---5---0---|
|-5---5---5---5---5---2---|
|-5---5---5---5---5---1---|
|-3---3---3---3---3---2---|
|-------------------------|
  You________ where never mine.

Chorus:
Suggest correction
Give kudos to tab author, rate the tab!
1 2 3 4 5
comments
print report bad tab
3 comments total.
0 reply
Aceroth 76 wrote on March 29 2007, 03:37 pm

Sorry, this is maybe somewhere around 75% correct, but definitely not 100%. Whenever you have that chord on the 7th fret, it sounds like it should be on 5 instead. Keep working at it, but don't pretend to know what a perfect tab is when you think this is one. 3 stars.

0 reply
b_ball_girl1021 104 wrote on March 29 2007, 03:53 pm

Yeah, you're right. Sorry, I based it off the sheet music. I'll correct it.

0 reply
b_ball_girl1021 104 wrote on April 23 2007, 04:07 pm

If you remember to change every
|---| |---|
|-0-| |-0-|
|-6-| to |-4-| then you will have a better tab.
|-7-| |-5-|
|-7-| |-5-|
|-7-| |-5-|

guest
You may want to rate the tab now too:
select rating
Please do not post tabs as comments. Select "correction" instead!