Oops, an error
Loading. Please wait.

Call Me When Youre Sober Tab

version 7
version 7
9,486 views 3 this week
3 commentsread comments
1 2 3 4 5
accurate
x 3
add to favorites
launch autoscroll
font size
0
reset
how to read this tab
guitar tuner
Tab Pro tools
  • play this tab
  • loop segment
  • change instrument
  • show fretboard
  • metronome
×
Best way to learn
"Call Me When Youre Sober"
Autoscroll
slow
fast
+/-
esc
set tempo
stop
Contributor
Difficulty
Tuning
intermediate
D A D G B E
From Evanescence - The Open Door
  Call Me When You're Sober
Words and Music by Terry Balsamo and Amy Lee

Transcribed by: Ruben Meijerink
---------------------------------


Tuning: DEADGBE 

L: tied note

Gtr. 1*
     W                   W                 
E||-------------------|-------------------|
B||-------------------|-------------------|
G||--0----------------|-------------------|
D||--2----------------|--2----------------|
A||--2----------------|--3----------------|
D||--2----------------|--5----------------|
* Piano arr. for gtr.

  W                   W                 
-------------------|-------------------|
-------------------|-------------------|
--0----------------|--0----------------|
--2----------------|--1----------------|
--2----------------|--1----------------|
--2----------------|--1----------------|


  W                   W                 
-------------------|-------------------|
--0----------------|-------------------|
--0----------------|--0----------------|
--5----------------|--1----------------|
--5----------------|--1----------------|
--5----------------|--1----------------|


  W                   S S S S S S S S Q    Q     
-------------------|----------------3-L---------|
--0----------------|--------4-----3-------------|
--0----------------|------5-----5----------5----|
--5----------------|----5-----5-----------------|
--5----------------|--3-------------------------|
--5----------------|----------------------------|


  W                   W                 
-------------------|-------------------|
--0----------------|--L----------------|
--0----------------|--L----------------|
--5----------------|--L----------------|
--5----------------|--L----------------|
--5----------------|--L----------------| 
                  
                      <              >
    Gtr.2 fades in:   H.           S E.
                   |---------------------|
                   |---------------------|
                   |---------------------|
                   |--5------------L-----|
                   |--5------------L-0---|
                   |--5------------L-0---|



Interlude

Rhy. Fig. 1

          PM PM PM PM   PM PM PM       
  S  S E  S  S  S  S  S E  S  S  E  S  
--------------------------------------|
--------------------------------------|
--------------------------------------|
--------------------------------------|
--0h-2-2--2--2--2--2--L-2--2--2--0--2-|
--0h-2-2--2--2--2--2--L-2--2--2--0--2-|


          PM PM PM PM   PM PM PM       
  S  S E  S  S  S  S  S E  S  S  E  S  
--------------------------------------|
--------------------------------------|
--------------------------------------|
--------------------------------------|
--0h-2-2--2--2--2--2--L-2--2--2--0--2-|
--0h-2-2--2--2--2--2--L-2--2--2--0--2-|


          PM PM PM PM   PM PM PM       
  S  S E  S  S  S  S  S E  S  S  E  S  
--------------------------------------|
--------------------------------------|
--------------------------------------|
--------------------------------------|
--0h-2-2--2--2--2--2--L-2--2--2--0--2-|
--0h-2-2--2--2--2--2--L-2--2--2--0--2-|


          PM PM PM PM   PM PM PM   PM PM PM  
  S  S E  S  S  S  S  S S  S  S  S S  S  S   
--------------------------------------------|
--------------------------------------------|
--------------------------------------------|
--------------------------------------------|
--0h-2-2--2--2--2--2--L-2--2--2--L-2--2--2--|
--0h-2-2--2--2--2--2--L-2--2--2--L-2--2--2--|

Verse

  S  S E  Q    Q    S E  S  
---------------------------|
---------------------------|
---------------------------|
---------------------------|
--0--2-2--------------0--0-|
--0h-2-2--------------0--0-|


  S  S E  Q    Q    S E  S  
---------------------------|
---------------------------|
---------------------------|
---------------------------|
--0h-2-2--------------0--0-|
--0h-2-2--------------0--0-|


  S  S E  Q    Q    S E  S  
---------------------------|
---------------------------|
---------------------------|
---------------------------|
--0h-2-2--------------0--0-|
--0h-2-2--------------0--0-|


  S  S E  Q    Q    S E  S  
---------------------------|
---------------------------|
---------------------------|
---------------------------|
--0h-2-2--------------0--0-|
--0h-2-2--------------0--0-|


  S  S E  Q    Q    S E  S  
---------------------------|
---------------------------|
---------------------------|
---------------------------|
--0h-2-2--------------0--0-|
--0h-2-2--------------0--0-|


  S  S E  Q    Q    S E  S  
---------------------------|
---------------------------|
---------------------------|
---------------------------|
--0h-2-2--------------0--0-|
--0h-2-2--------------0--0-|


  S  S E  Q    Q    S E  S    S  S E  Q    H         
---------------------------|------------------------|
---------------------------|------------------------|
---------------------------|------------------------|
---------------------------|------------------------|
--0h-2-2--------------0--0-|--0h-2-2----------------|
--0h-2-2--------------0--0-|--0h-2-2----------------|


Pre - Chorus

        PM PM        PM PM     PM    
  E.  S S  S  E  S S S  S  S S S  S  
------------------------------------|
------------------------------------|
------------------------------------|
--5---5-5--5--5--L-5-5--5--5-5-4--4-|
--3---3-3--3--3--L-3-3--3--3-3-2--2-|
------------------------------------|


        PM PM                 
  E.  S S  S  E  Q.     S  S  
-----------------------------|
-----------------------------|
-----------------------------|
--4---4-4--4--4--L-----------|
--2---2-2--2--2--L-----------|
------------------------0h-2-|

Chorus 

  E.  S S S E  S S S S S S S S  
-------------------------------|
-------------------------------|
-------------------------------|
-----------------------------5-|
--2---2-2-2-2--L-2-2-2-2-2---3-|
--2---2-2-2-2--L-2-2-2-2-2-0---|


  E.  S S S E  S E  S S S S  S  
-------------------------------|
-------------------------------|
-------------------------------|
--5---5-5-5-5--L-5--5-5-5------|
--3---3-3-3-3--L-3--3-3-3-0--2-|
--------------------------0h-2-|


  E.  S S S E  S S S S S S S  S  
--------------------------------|
--------------------------------|
--------------------------------|
--------------------------------|
--2---2-2-2-2--L-2-2-2-2-2-2s-1-|
--2---2-2-2-2--L-2-2-2-2-2-2s-1-|


  E.  S S S E  S S S S S S S  S  
--------------------------------|
--------------------------------|
--------------------------------|
--------------------------------|
--1---1-1-1-1--L-1-1-1-1-1-1s-5-|
--1---1-1-1-1--L-1-1-1-1-1-1s-5-|


  E.  S S S E  S S S S S S S  S  
--------------------------------|
--------------------------------|
--------------------------------|
--------------------------------|
--5---5-5-5-5--L-5-5-5-5-5-0h-1-|
--5---5-5-5-5--L-5-5-5-5-5-0h-1-|


  E.  S S S E  S S S S S S S  S  
--------------------------------|
--------------------------------|
--------------------------------|
--------------------------------|
--1---1-1-1-1--L-1-1-1-1-1-1s-5-|
--1---1-1-1-1--L-1-1-1-1-1-1s-5-|


  E.  S S S E  S S S S S S S S    W                 
-------------------------------|-------------------|
-------------------------------|-------------------|
-------------------------------|-------------------|
-----------------------------5-|--5----------------|
--5---5-5-5-5--L-5-5-5-5-5---3-|--3----------------|
--5---5-5-5-5--L-5-5-5-5-5-0---|-------------------|


  H.           S E  S    S  S E  Q    Q    S E  S  
----------------------|---------------------------|
----------------------|---------------------------|
----------------------|---------------------------|
----------------------|---------------------------|
--5------------L-0--0-|--0h-2-2--------------0--0-|
--5------------L-0--0-|--0h-2-2--------------0--0-|

  S  S E  Q    Q    S E  S  
---------------------------|
---------------------------|
---------------------------|
---------------------------|
--0h-2-2--------------0--0-|
--0h-2-2--------------0--0-| 
               2. Couldn't 

Verse
 
Gtr. 2 w/ Rhy Fig. 1 (3 times)

Pre-Chorus

Chorus


Bridge: (you never call me when...)


Gtr. 4* 

     W                   W                 
E||-------------------|-------------------|
B||--5----------------|--4----------------|
G||--5----------------|--5----------------|
D||--5----------------|--5----------------|
A||--3----------------|--3----------------|
D||-------------------|-------------------|

*Organ arr. for gtr.

  W                   H        H         
-------------------|--------------------|
-------------------|--------------------|
--4----------------|--5--------4--------|
--5----------------|--5--------5--------|
--5----------------|--5--------5--------|
--5----------------|--5--------5--------|
                               

  W                   W                 
-------------------|-------------------|
--5----------------|--4----------------|
--5----------------|--5----------------|
--5----------------|--5----------------|
--3----------------|--3----------------|
-------------------|-------------------|


  W                   W                 
-------------------|-------------------|
--0----------------|-------------------|
--0----------------|--0----------------|
--5----------------|--1----------------|
--5----------------|--1----------------|
--5----------------|--1----------------|


  W                   W                 
-------------------|-------------------|
--0----------------|-------------------|
--0----------------|--0----------------|
--5----------------|--1----------------|
--5----------------|--1----------------|
--5----------------|--1----------------|


Then the distortion kicks in again:


     E.  S E  E  Q    E  S S    Q.     E  Q    E  S  

E||--------------------------|------------------------|
B||--------------------------|------------L-----------|
G||--------------------------|---------4--L----4------|
D||--------------------------|---------2--L----2--x-x-|
A||--7---7-L--7--0----0--0-0-|--2------2--L----2--x-x-|
D||--7---7-L--7--0----0--0-0-|--2------2--L----2--x-x-|
    How_____________could                        have

  E.  S E  E  Q    E  S S    Q.     E  E  E  Q     
--------------------------|-----------------------|
--------------------------|-----------------------|
--------------------------|---------4--L-----4----|
--5---5-L--5--4----4--x-x-|---------2--L--2--2----|
--3---3-L--3--2----2--x-x-|--2------2--L--2--2----|
--------------------------|--2------2--L-----2----|
burned

  E.  S E  E  H           Q.     E  Q    E  S S  
-----------------------|------------------------|
-----------------------|------------------------|
-----------------------|---------4--L----4------|
-----------------------|---------2--L----2--x-x-|
--7---7-L--7--0--------|--2------2--L----2--x-x-|
--7---7-L--7--0--------|--2------2--L----2--x-x-|


  E.  S E  E  Q    E  S S  
--------------------------|
--------------------------|
--------------------------|
--5---L-L--5--L----5--x-x-|
--3---L-L--3--L----3--x-x-|
--------------------------|
                      nev

       PM PM PM PM PM PM PM PM PM PM    
  Q    S  S  S  S  S  S  S  S  S  E.    
---------------------------------------|
---------------------------------------|
---------------------------------------|
--4----4--4--4--4--4--4--4--4--4--4\---|
--2----2--2--2--2--2--2--2--2--2--2\---|
---------------------------------------|


  -    er   mine.


Play Chorus


-END-

Oh yeah, by the way 
The tapping part that Gtr. 3 plays is:

          T        T        T       
  Q    S  S  S  S  S  S  S  S Q     
-----------------------------------|
-----------------------------------|
-----------------------------------|
---------17p-0h-2-16p-0h-2-14-L----|
-----------------------------------|
-----------------------------------|


          T        T        T       
  Q    S  S  S  S  S  S  S  S Q     
-----------------------------------|
-----------------------------------|
-----------------------------------|
---------17p-0h-2-16p-0h-2-10-L----|
-----------------------------------|
-----------------------------------|


          T        T        T       
  Q    S  S  S  S  S  S  S  S Q     
-----------------------------------|
-----------------------------------|
-----------------------------------|
---------17p-0h-2-16p-0h-2-14-L----|
-----------------------------------|
-----------------------------------|


                                 slide tap finger.  
          T        T        T                       
  Q    S  S  S  S  S  S  S  S E  E                  
---------------------------------------------------|
---------------------------------------------------|
---------------------------------------------------|
---------17p-0h-2-16p-0h-2-12-L--L\----------------|
---------------------------------------------------|
---------------------------------------------------|


ENJOY!!
comments
We did not receive enough feedback on this tab! Please rate:
print report bad tab
1 2 3 4 5
3 comments total.
0 reply
08L1V10N wrote on June 17 2008, 12:47 pm

please rate and comment

0 reply
shadowthorn777 wrote on October 5 2008, 08:04 pm

Looks great man!

0 reply
silentskills wrote on November 5 2011, 07:13 pm

spot on, has all i needed :D

Shame on me for still playing this on standard tunning

I want to post or [tab]
guest
You may want to rate the tab now too:
select rating
Please do not post tabs as comments. Select "correction" instead!