Oops, an error
Loading. Please wait.

Everybodys Fool Tab

version 1
version 1
41,385 views 21 this week
2 commentsread comments
1 2 3 4 5
accurate
x 6
add to favorites
launch autoscroll
font size
0
reset
how to read this tab
guitar tuner
Tab Pro tools
  • play this tab
  • loop segment
  • change instrument
  • show fretboard
  • metronome
×
Best way to learn
"Everybodys Fool"
Autoscroll
slow
fast
+/-
esc
set tempo
stop
-------------------------------------------------------------------------------
                             EVERYBODY'S FOOL - Evanescence
-------------------------------------------------------------------------------
Tabbed by: Bouf
Email: bouf9@hotmail.com

Tuning: Drop D

INTRO/CHORUS

e|---------------------------------------------------------------------------|
B|---------------------------------------------------------------------------|
G|---------------------------------------------------------------------------|
D|-00--3-00--07h8p7--1010------00--7--00--07h8p7--10---00--7-----------------|
A|-00--3-00--07h8p7--1010------00--7--00--07h8p7--10---00--7-----------------|
D|-00--3-00--07h8p7--1010------00--7--00--07h8p7--10---00--7-----------------|
                                              

VERSE 1

e|---------------------------------------------------------------------------|
B|---------------------------------------------------------------------------|
G|---------------------------------------------------------------------------|
D|-00-00--10-}------8-5-7--00--3---------------------------------------------|
A|-00-00--10-}X3----8-5-7--00--3---------------------------------------------|
D|-00-00--10-}------8-5-7--00--3---------------------------------------------|
                          

CHORUS
after the main part of the chorus it does this...
e|---------------------------------------------------------------------------|
B|---------------------------------------------------------------------------|
G|---------------------------------------------------------------------------|
D|-8888887755558877--0--000--000--10-----0--000--000--10---------------------|
A|-8888887755558877--0--000--000--10-----0--000--000--10---------------------|
D|-8888887755558877--0--000--000--10-----0--000--000--10---------------------|
                                        

VERSE 2

e|---------------------------------------------------------------------------|
B|---------------------------------------------------------------------------|
G|---------------------------------------------------------------------------|
D|-00-00--10-}------8-5-7--00--3---------------------------------------------|
A|-00-00--10-}X3----8-5-7--00--3---------------------------------------------|
D|-00-00--10-}------8-5-7--00--3---------------------------------------------|
                          
-------------
CHORUS
-------------
QUIET BIT!
-------------

MODIFIED CHORUS

e|---------------------------------------------------------------------------|
B|---------------------------------------------------------------------------|
G|---------------------------------------------------------------------------|
D|-00--0-7h8p7--10--7--8--7h8p7--55------7-888888-7--10--7-------------------|
A|-00--0-7h8p7--10--7--8--7h8p7--55------7-888888-7--10--7-------------------|
D|-00--0-7h8p7--10--7--8--7h8p7--55------7-888888-7--10--7-------------------|

-------------
CHORUS X 4
-------------

END

e|---------------------------------------------------------------------------|
B|---------------------------------------------------------------------------|
G|---------------------------------------------------------------------------|
D|-0--000--00----------------------------------------------------------------|
A|-0--000--00----------------------------------------------------------------|
D|-0--000--00----------------------------------------------------------------|
      


| /  slide up
| \  slide down
| h  hammer-on
| p  pull-off
| ~  vibrato
| +  harmonic
| x  Mute note
===============================================================================
comments
print report bad tab
2 comments total.
0 reply
masta-bs wrote on January 21 2004, 12:00 am

Good tab, but there are palm mutes in the intro. The intro should be like this

e|------------------------------------------------------------
B|------------------------------------------------------------
G|------------------------------------------------------------
D|-00--3-00--007h8p7--1010------00--7--00--007h8p7--10---00--7--
A|-00--3-00--007h8p7--1010------00--7--00--007h8p7--10---00--7--
D|-00--3-00--007h8p7--1010------00--7--00--007h8p7--10---00--7--
PM .. .. .. .. ..

0 reply
masta-bs wrote on January 21 2004, 12:00 am

Man that didnt come out right, just palm mute the first two 0's at the beginning, before the 787's, and before the plain 7's. That sounded pretty good when I played with the song.

I want to post or [tab]
guest
You may want to rate the tab now too:
select rating
Please do not post tabs as comments. Select "correction" instead!