Oops, an error
Loading. Please wait.

Everybodys Fool Tab

version 4
version 4
9,412 views 9 this week
no commentswrite comment
1 2 3 4 5
accurate
x 5
add to favorites
launch autoscroll
font size
0
reset
how to read this tab
guitar tuner
Tab Pro tools
  • play this tab
  • loop segment
  • change instrument
  • show fretboard
  • metronome
×
Best way to learn
"Everybodys Fool"
Autoscroll
slow
fast
+/-
esc
set tempo
stop
Contributor
song: everybody's fool
artist: evanescence


Hey, this isn't my first tab, but it is my first tab on-line. everything is correct, 
always play solos with the cd, so I added an easy solo for this song. enjoy!
^ : bend
~ : vibrato
P.H.: pinch harmonic "squeal" or "ping"
x : Palm mute
tuning: drop d (low to high) DADGBE

Acoustic Intro                                                                           
            x4
e|-----------------------------------------------------------------------------------------------------|
b|---6---6---------6------------3-----------------5--------------5------3-------------------6----------|
g|-----------------------------------------------------------------------------------------------------|
d|-------7---7---------7------------3------3---------5------5---------------3-------3-----------7------|
a|----------5---5---------5-------------1-----------------3----------------------1-------------------5-|
d|-----------------------------------------------------------------------------------------------------|

w/distortion:
e|-------------------------------------------------------------------------------|
b|-------------------------------------------------------------------------------|
g|-------------------------------------------------------------------------------|
d|----0----0---3---0------------0--0--7--8- 7--10--10-10-10-------5--7--10--0----|
a|----0----0---3---0------------0--0--7--8--7--10--10-10-10-------5--7--10--0----|
d|----0----0---3---0------------0--0--7--8--7--10--10 10 10-------5--7--10--0----|
      x    x        let ring... x  x                                        ....

e|--------------------------------------------|
b|--------------------------------------------|
g|--------------------------------------------|
d|-----0-0--7-8-7--10--10-10-10--5-7--10------|
a|-----0-0--7-8-7--10--10-10-10--5-7--10------|
d|-----0-0--7-8-7--10--10-10-10--5-7--10------|
       x x

Verse  1                                               x2

e|------------------------------------------------------|
b|------------------------------------------------------|
g|------------------------------------------------------|
d|---0--0-----0--0--10-10--0-0--0-0--0--10--10-10-------|
a|---0--0-----0--0--10-10--0-0--0-0--0--10--10-10-------|
d|---0--0-----0--0--10-10--0-0--0-0--0--10--10-10-------|
                                     x

e|----------------------------------------------------------------------|
b|----------------------------------------------------------------------|
g|----------------------------------------------------------------------|
d|--0-0--0-0--10-10----------8/5--7-----0--0--3-------------------------|
a|--0-0--0-0--10-10----------8/5--7-----0--0--3-------------------------|
d|--0-0--0-0--10-10----------8/5--7-----0--0--3-------------------------|
                                        x  x          now the chorus

Chorus

e|-----------------------------------------------------------------------------|
b|-----------------------------------------------------------------------------|
g|-----------------------------------------------------------------------------|
d|---------------0------------0--0--7--8- 7--10--10-10-10-------5--7--7---0----|
a|---------------0------------0--0--7--8--7--10--10-10-10-------5--7--7---0----|
d|---------------0------------0--0--7--8--7--10--10 10 10-------5--7--7---0----|
                let ring...   x  x                                        .....

e|--------------------------------------------------------------------------------------------|
b|--------------------------------------------------------------------------------------------|
g|--------------------------------------------------------------------------------------------|
d|-----0-0--7-8-7--10--10-10-10--5-7-7--8-8-8-8--7/-5-8-7--0-0-0-0-3-0-0-10-0-0-0-0-3-0-0-10--|
a|-----0-0--7-8-7--10--10-10-10--5-7-7--8-8-8-8--7/-5-8-7--0-0-0-0-3-0-0-10-0-0-0-0-3-0-0-10--|
d|-----0-0--7-8-7--10--10-10-10--5-7-7--8-8-8-8--7/-5-8-7--0-0-0-0-3-0-0-10-0-0-0-0-3-0-0-10--|
       x x                                                   x x x            x x x


Verse  2                                           x2
e|----------------------------------------------------|
b|----------------------------------------------------|
g|----------------------------------------------------|
d|---0--0-----0--0--10-10--0-0--0-0--0--10--10-10-----|
a|---0--0-----0--0--10-10--0-0--0-0--0--10--10-10-----|
d|---0--0-----0--0--10-10--0-0--0-0--0--10--10-10-----|
                                     x

e|-----------------------------------------------------|
b|-----------------------------------------------------|
g|-----------------------------------------------------|
d|--0-0--0-0--10-10----------8/5--7-----0--0--3--------|
a|--0-0--0-0--10-10----------8/5--7-----0--0--3--------|
d|--0-0--0-0--10-10----------8/5--7-----0--0--3--------|
                                        x  x


e|------------------------------------------------------|
b|------------------------------------------------------|
g|------------------------------------------------------|
d|------------------------------------------------------|
a|---------------------------------------10--12---------|
d|--/12--10/15\14-----/12--10---------------------------|

Chorus

e|-------------------------------------------------------------------------------|
b|-------------------------------------------------------------------------------|
g|-------------------------------------------------------------------------------|
d|---------------0------------0--0--7--8- 7--10--10-10-10-------5--7--7---0------|
a|---------------0------------0--0--7--8--7--10--10-10-10-------5--7--7---0------|
d|---------------0------------0--0--7--8--7--10--10 10 10-------5--7--7---0------|
                let ring...   x  x                                        .......

e|---------------------------------------------------------|
b|---------------------------------------------------------|
g|---------------------------------------------------------|
d|-----0-0--7-8-7--10--10-10-10--5-7-7--8-8-8-8--7/-5-8-7--|
a|-----0-0--7-8-7--10--10-10-10--5-7-7--8-8-8-8--7/-5-8-7--|
d|-----0-0--7-8-7--10--10-10-10--5-7-7--8-8-8-8--7/-5-8-7--|
       x x

Ok, this is the piano part, as soon as the guitars kick in, play this:

e|-------------------------------------------------------------------------------|
b|-------------------------------------------------------------------------------|
g|-------------------------------------------------------------------------------|
d|---------------0---------------7--8- 7--10--10-10-10-------7--8-8-8-8-8--------|
a|---------------0---------------7--8--7--10--10-10-10-------7--8-8-8-8-8--------|
d|---------------0---------------7--8--7--10--10 10 10-------7--8-8-8-8-8--------|


e|-------------------------------------------------------------------|
b|-------------------------------------------------------------------|
g|-------------------------------------------------------------------|
d|-------7-8-7--5--5-5-5--5-7-8-7--8-8-8-8-7-10-10-10-10--7-7-7-7----|
a|-------7-8-7--5--5-5-5--5-7-8-7--8-8-8-8-7-10-10-10-10--7-7-7-7----|
d|-------7-8-7--5--5-5-5--5-7-8-7--8-8-8-8-7-10-10-10-10--7-7-7-7----|


Chorus

e|------------------------------------------------------------------------------|
b|------------------------------------------------------------------------------|
g|------------------------------------------------------------------------------|
d|---------------0------------0--0--7--8- 7--10--10-10-10-------5--7--7---0-----|
a|---------------0------------0--0--7--8--7--10--10-10-10-------5--7--7---0-----|
d|---------------0------------0--0--7--8--7--10--10 10 10-------5--7--7---0-----|
                let ring...   x  x                                        ......

e|---------------------------------------------------------------------|
b|---------------------------------------------------------------------|
g|---------------------------------------------------------------------|
d|-----0-0--7-8-7--10--10-10-10--5-7-7--8-8-8-8--7/-5-8-7--0-0-0-0-3-0-|
a|-----0-0--7-8-7--10--10-10-10--5-7-7--8-8-8-8--7/-5-8-7--0-0-0-0-3-0-|
d|-----0-0--7-8-7--10--10-10-10--5-7-7--8-8-8-8--7/-5-8-7--0-0-0-0-3-0-|
       x x                                                   x x x

 HERE'S THE SOLO I MADE!
The cool thing about this solo is that you can play it at ny time of the
 song, as soon as the guitars come back from the piano part,or at the very end.
 Practice it, master it, it's easy and cool, play it where you want.

Solo
w/wah-wah                                                                                
             ~
e|----------------------------------------------------------------------------------------------------------|
b|---/15-15-15----15-17-17-18--17---------------------------------------------------------------------------|
g|---------------------------------------------17-19----17--19-17-------------------------------------------|
d|-----------------------------------------------------------------------19--17-15h-17p-15-14-12------------|
a|--------------------------------------------------------------------------------------------------15-17---|
d|----------------------------------------------------------------------------------------------------------|

                                                 ~                                       
             ~
e|----------------------------------------------------------------------------------------------------------|
b|----------------------------------------------------------------------------------------------------------|
g|-----------------------------------------------------------------------14-15-17-19^--------2-3/5--3--2----|
d|---------------------------------15-17^15-----------------------------------------------------------------|
a|---15-17-19-17---15--17------------------17-15-17^--------------------------------------------------------|
d|----------------------------------------------------------------------------------------------------------|
                                                                                         
             P.H.

                                                                        ~
e|-----------------------------------------------------------------------------|
b|-----------------------------------------------------------------------------|
g|----------------------------------------------------------------------17-----|
d|----------------------------------------------------------18--16-15----------|
a|-------------------------------------15-15-19-19-----------------------------|
d|--15-15-15-15-16-16-16-16--19-19---------------------------------------------|
                                                                       P.H.

e|-----------------------------------------------------------------|
b|-----------------------------------------------------------------|
g|-12-15p-14p-12-15p-14p-12-15p-14p-12-15p-14p-12 15^14-15-12-15---|
d|-----------------------------------------------------------------|
a|-----------------------------------------------------------------|
d|-----------------------------------------------------------------|
comments
print report bad tab
I want to post or [tab]
guest
You may want to rate the tab now too:
select rating
Please do not post tabs as comments. Select "correction" instead!