Oops, an error
Loading. Please wait.

Everybodys Fool Tab

version 5
version 5
31,295 views 72 this week
6 commentsread comments
1 2 3 4 5
excellent!
x 18
add to favorites
launch autoscroll
font size
0
reset
how to read this tab
guitar tuner
Tab Pro tools
  • play this tab
  • loop segment
  • change instrument
  • show fretboard
  • metronome
×
Best way to learn
"Everybodys Fool"
Autoscroll
slow
fast
+/-
esc
set tempo
stop
Song Title: Everybody's Fool
Artist:	    Evanescence
Tabbed by:  Melanie R. Saban
Email: 	    homelyinning@yahoo.com
URL:        http://msaban.blogdrive.com

Drop D

INTRO

 	|------------guitar 1-----------|
e|------------------------------------------------------¦R---------|
B|--6----6-----6-----6--------5-----5-----5-----5-------¦E---------|
G|-----7-----7-----7----7---------7-----7-----7-----7---¦P-[2x]----|
D|---7-----7-----7----7---------7-----7-----7-----7-----¦E---------|
A|------------------------------------------------------¦A---------|
D|------------------------------------------------------¦T---------|
 	|------------guitar 2-----------|
e|------------------------------¦R---------|
B|------------------------------¦E---------|
G|--7----7----7----7----7-------¦P-[4x]----|
D|-----7----7----7----7---------¦E---------|
A|---5----5----5----5-----------¦A---------|
D|------------------------------¦T---------|



 	|------------guitar 1-----------|
e|-----------------------------------------|
B|--6----6-----6---5-----6-5---------------|
G|-----7-----7--------7--------------------|
D|---7-----7--------------------00--3------|
A|------------------------------00--3------|
D|------------------------------00--3------|
 	|------------guitar 2-----------|
e|-----------------------------------------|
B|-----------------------------------------|
G|--7----7----7----7----7------------------|
D|-----7----7----7----7---------00--3------|
A|---5----5----5----5-----------00--3------|
D|------------------------------00--3------|



e|-----------------------------------------------------------------|
B|-----------------------------------------------------------------|
G|-----------------------------------------------------------------|
D|-0---07h8p7--10---00--7--------0--07h8p7--10---00--7-------------|
A|-0---07h8p7--10---00--7--------0--07h8p7--10---00--7-------------|
D|-0---07h8p7--10---00--7--------0--07h8p7--10---00--7-------------|




1st Verse

e|------------------------------------------------------¦R---------|
B|------------------------------------------------------¦E---------|
G|------------------------------------------------------¦P-[2x]----|
D|-00-00-0h10--00-00-0h10--00-00-0h10---8-5-7--00--3----¦E---------|
A|-00-00-0h10--00-00-0h10--00-00-0h10---8-5-7--00--3----¦A---------|
D|-00-00-0h10--00-00-0h10--00-00-0h10---8-5-7--00--3----¦T---------|



CHORUS 1:

e|-----------------------------------------------------------------|
B|-----------------------------------------------------------------|
G|-----------------------------------------------------------------|
D|-0---07h8p7--10---00--7--------0--07h8p7--10---00--7-------------|
A|-0---07h8p7--10---00--7--------0--07h8p7--10---00--7-------------|
D|-0---07h8p7--10---00--7--------0--07h8p7--10---00--7-------------|
                                              
                 
e|-----------------------------------------------------------------|
B|-----------------------------------------------------------------|
G|-----------------------------------------------------------------|
D|-8888887755558870--000000--10-----0--000000--10------------------|
A|-8888887755558870--000000--10-----0--000000--10------------------|
D|-8888887755558870--000000--10-----0--000000--10------------------|
                                        

2nd Verse 

e|------------------------------------------------------¦R---------|
B|------------------------------------------------------¦E---------|
G|------------------------------------------------------¦P-[2x]----|
D|-00-00-0h10--00-00-0h10--00-00-0h10---8-5-7--00--3----¦E---------|
A|-00-00-0h10--00-00-0h10--00-00-0h10---8-5-7--00--3----¦A---------|
D|-00-00-0h10--00-00-0h10--00-00-0h10---8-5-7--00--3----¦T---------|


 	|------------guitar 1-----------|
e|-----------------------------------------------------------------|
B|-----------------------------------------------------------------|
G|-----------------------------------------------------------------|
D|-----------------------------------------------------------------|
A|-5--3--8--7--5--3--8--9------------------------------------------|
D|-----------------------------------------------------------------|
 	|------------guitar 2-----------|
e|-----------------------------------------------------------------|
B|-----------------------------------------------------------------|
G|-----------------------------------------------------------------|
D|-12-10--15--14--12--10--15--17-----------------------------------|
A|-12-10--15--14--12--10--15--17-----------------------------------|
D|-12-10--15--14--12--10--15--17-----------------------------------|
                          


CHORUS 2:

e|-----------------------------------------------------------------|
B|-----------------------------------------------------------------|
G|-----------------------------------------------------------------|
D|-0---07h8p7--10---7h8----------0--07h8p7--10---7h8---------------|
A|-0---07h8p7--10---7h8----------0--07h8p7--10---7h8---------------|
D|-0---07h8p7--10---7h8----------0--07h8p7--10---7h8---------------|


e|-----------------------------------------------------------------|
B|-----------------------------------------------------------------|
G|-----------------------------------------------------------------|
D|-88888-77-5555-8-7-0---------------------------------------------|
A|-88888-77-5555-8-7-0---------------------------------------------|
D|-88888-77-5555-8-7-0---------------------------------------------|



	|------------Guitar 1-----------|


D9-A-D9-Bb
Gm-D-Gm-A4

   D9                    A  		   D9                    Bb  

|------------|     |------------|	|------------|     |---1--------|
|---5-(4)----|     |---5--------|	|---5-(4)----|     |---3--------|
|---7--------|     |---5--------|	|---7--------|     |---3--------|
|---7--------|     |---7--------|	|---7--------|     |---3--------|	
|---5--------|     |---7--------|	|---5--------|     |---1--------|
|------------|     |---7--------|	|------------|     |------------|

   Gm                    D  	   	   Gm                    A4  

|------------|     |------------|	|------------|     |---0--------|
|---3--------|     |------------|	|---3--------|     |---2--------|
|---3--------|     |---0--------|	|---3--------|     |---2--------|
|---5--------|     |---0-(3)----|	|---5--------|     |---2--------|
|---5--------|     |---0--------|	|---5--------|     |---0--------|
|---5--------|     |---0--------|	|---5--------|     |------------|




CHORUS 

e|-----------------------------------------------------------------|
B|-----------------------------------------------------------------|
G|-----------------------------------------------------------------|
D|-0---07h8p7--10---7-8--7h8p7--5------7/88h10p8-7-10-7-0----------|
A|-0---07h8p7--10---7-8--7h8p7--5------7/88h10p8-7-10-7-0----------|
D|-0---07h8p7--10---7-8--7h8p7--5------7/88h10p8-7-10-7-0----------|
						
						                --------¦
e|-----------------------------------------------------------------|	¦
B|-----------------------------------------------------------------|	¦
G|-----------------------------------------------------------------|	¦
D|-0---07h8p7--10---00-7---------0--07h8p7--10---00-7--------------|	¦
A|-0---07h8p7--10---00-7---------0--07h8p7--10---00-7--------------|  R	¦
D|-0---07h8p7--10---00-7---------0--07h8p7--10---00-7--------------|  E	¦	
								    P(3X)
e|-----------------------------------------------------------------|  E	¦
B|-----------------------------------------------------------------|  A	¦
G|-----------------------------------------------------------------|  T	¦
D|-88888-77-5555-8-7-0---------------------------------------------|  	¦
A|-88888-77-5555-8-7-0---------------------------------------------|	¦
D|-88888-77-5555-8-7-0---------------------------------------------|	¦
									¦	
							        --------¦

e|-----------------------------------------------------------------|
B|-----------------------------------------------------------------|
G|-----------------------------------------------------------------|
D|--0000--0--------------------------------------------------------|
A|--0000--0--------------------------------------------------------|
D|--0000--0--------------------------------------------------------|
comments
print report bad tab
6 comments total. Showing first comments.
+2 reply
Karinzuja wrote on June 7 2006, 02:21 pm

The ending is

----------
----------
----------
-0000-3-0-
-0000-3-0-
-0000-3-0-

0 reply
sashabee wrote on December 1 2009, 12:24 pm

what tunings are guitar 1 and 2 in?

+2 reply
Flyleafguitar wrote on July 21 2010, 04:46 pm

Tuning is Drop D (meaning the top string is tuned to D instead of E)

I want to post or [tab]
guest
You may want to rate the tab now too:
select rating
Please do not post tabs as comments. Select "correction" instead!