Oops, an error
Loading. Please wait.

Fallen Bass Tab

4,598 views 1 this week
2 commentsread comments
1 2 3 4 5
accurate
x 4
add to favorites
launch autoscroll
font size
0
reset
guitar tuner
Autoscroll
slow
fast
+/-
esc
set tempo
stop
Help us to improve Ultimate-Guitar.com Take our survey!
×
Contributor
Album: Fallen
Artist: Evanescence
Tab by UnterTaker

To view better the tabs copy it view it in a writning program...
then change the text format
in Courier New, size 8 or 10.... good quality!!
Fallen - 2003

•	01_Going under
Verse (00:26) 	Pre
G|------------    G|---------------|
D|------------     D|--------------|
A|--22--2--22-     A|-5~----2~-2~--|
E|------------     E|----3~--------|

Chorus
G|--------------------------------------------------|
D|--------------------------------------------------|
A|--2-2-2------5-5-5--0-0------2-2-2------5-5-5-4-4-| x2
E|--------3-3------------------------3-3------------|

Bridge
G|---------------------------------------------------|
D|---------------------------------------------------|
A|-------------------3333333333333333----------------|
E|-33333333-22222222------------------33333333-22222-|

•	02_Bring me to life
Verse
G|----------------------------------------------------------------------|
D|----------------------------------------------------------------------|
A|-77-77-77-77-7777-77-77-77-77-7777-33-33-33-33-3333-33-33-33-33-333/7-| x2
E|----------------------------------------------------------------------|

Chorus
G|-----------------------------------------------------------|
D|-----------------------------------------------------------|
A|-7-7/--7-7-7/10-10-10/--10-10-10\5-5-5-5-5-5/7-7-7-7-7-7h9-| x2
E|-----------------------------------------------------------|

Bridge
G------------------------------------|
D------------------------------------|
A-3-3-3----5-5-5----77-77-77-77-7777-| x2
E------3/5-------5/7-----------------|

G|----------------------------------------------------4-------------------------------------|
D|--------9-------7-5-7-5----------------4--4-5-2-4-5------------7-5-7-5--------------------|
A|-7-9-10-----5-7---------7-5--------3-5--5------------------5-7---------7-5----------------|
E|----------5-----------------7-3--------------------------5-----------------7-3-3/7-7-7-77-|

•	03_Everybody's fool
Intro
G|------------------------|
D|-0-0-0-7/8-7-10-10-10-7-|
A|------------------------| x2
E|------------------------|

Verse
G|-----------------------------------|
D|-00-00-5-00-00-5-00-00-5-8-5-7-003-|
A|-----------------------------------|
E|-----------------------------------|

Pre (just 2nd time)
G|-7-5-10-9-7-5-10-12-|
D|--------------------|
A|--------------------|
E|--------------------|

Chorus
G|------------------------         G|------------------------------------|
D|-0-0-0-7/8-7-10-10-10-7-         D|-8~~~~~~~~-765~~~~~~~~/8-8-8-7-7-7--|
A|------------------------ x2     A|-------------------------------------|
E|------------------------         E|------------------------------------|

G|-----------------------------|
D|-0-0000-0-x-10-0-0000-0-x-10-|
A|-----------------------------|
E|-----------------------------|

Bridge
G|-----------------------------------------------------------------------|
D|-0-0-0-7/8-7-10-10-10-7----8-8-8-7/8-5-5-5-7-8/10----8-8-8-7-10-10-7-7-|
A|-----------------------------------------------------------------------|
E|-----------------------------------------------------------------------|


•	04_My Immortal
Intro - Verse
G|---------------------|
D|---------------------|
A|--------4~--------4~-|
E|---5~--------5~------|

Pre
G|----------------------------------|
D|-4~--------4~--------4~-----------|
A|------4~--------4~--------4~---7~-|
E|----------------------------------|

Chorus
G|---------------------------------------|
D|-4~------------------4~----------------|
A|------5~---7~---4~--------5~---7~------|
E|------------------------------------0~-|

Bridge
G|-------------------------------|
D|-------------------------------|
A|-5---9---4---5---5---4---5---7-|
E|-------------------------------|

•	05_Haunted
Intro softly
G|---
D|---
A|-0- many times
E|---

Chorus 1 00:52
G|-------------------------------------3-3-3-5\-|
D|-1-1-1-1-1-1-0-0-0-1-1-1-1-1-1-1-1-1----------|
A|----------------------------------------------|
E|----------------------------------------------|
pm       . . .       . . .       . . .

Verse
G|-----------------|
D|-1-1--1---1-1--1-|
A|-----------------|
E|-----------------|

Chorus 2 01:48
G|-------------------------------------12-11-9-11-9~-|
D|-1-1-1-1-1-1-0-0-0-1-1-1-1-1-1-1-1-1---------------|
A|---------------------------------------------------|
E|---------------------------------------------------|
pm       . . .       . . .       . . .

Bridge
G|-12-11-9-11-9~---12-11-9-11-9~-|
D|-------------------------------|
A|-------------------------------| repeat
E|-------------------------------|

End
G|--------|
D|-1-1--1-|
A|--------|
E|--------|

•	06_Tourniquet
Intro - Chrous
G|------------------------------------------------------------------------------------|
D|------------------------------------------------------------------------------------|
A|------------------------------------------------------------------------------------| x2
E|-000-12-000-12-00-12---000-12-000-12-00-12---000-8-000-8-00-8---000-10-000-10-00-10-|

Verse 01:00
G|---------------------------------------------------|
D|---------------------------------------------------|
A|---------------------------------------------------| x2 (first time) x3 (second time)
E|-00-000-00-23-00-000-00/8-88-888-88/10-10-12-10-12-|

Bridge
G|----------------|
D|----------------|
A|--------------7-|
E|-00000000000----|
•	07_Imaginary
Intro (hear the song for rhythm)
G|----------------------------------------------------------------|
D|----------------------------------------------------------------|
A|----------------------------------------------------------------|
E|-555-5-5-5-55---111-1-1-3-1-3-1---555-5-5-5-55---111-11-3-1-3-1-|

Verse
G|----------------------------------------------------------------------------------|
D|----------------------------------------------------------------------------------|
A|-0--------0------------------------0--------0------------------------0-------0-0--|
E|--------1--------3------1-1-3-------------1--------3------1-1-3-------------1-1-1-|

Chorus (hear the song for rhythm)
G|----------------------------------------------------------|
D|----------------------------------------------------------|
A|----------------------------------------------------------|
E|-555-5-5-5-55---1-1-1-1-1-3-1---555-5-5-5-55---1-1-11-1-5-|

Outro 2nd chorus
G|---------|
D|---------|
A|---------|
E|-8-5-8-3-|

Bridge
G|----------------|-----------------------------------------------------------------------------|
D|----------------|-----------------------------------------------------------------------------|
A|----------------|-111111115555555511111111--------111111115555555511111111--------------------|
E|-00000000000000-|-------------------------11111111------------------------1111111100000000000-|

•	08_Taking over me
Intro
G|-------------------------------------------|
D|-------------------------------------------|
A|-------------------------------------------|
E|-88-88-88---88-88-88---44-44-44---33-33-33-|

Verse 1
G|-------------------------------------------|
D|-------------------------------------------|
A|-------------------------------------------|
E|-88-88-88---88-88-88---44-44-44---33-33-33-|
pm .. .. ..   .. .. ..   .. .. ..   .. .. ..

Chorus
G|------------------|
D|------------------|
A|-8p0---8p0---/3-4-| x4
E|------------------|

Verse 2
G|-------------------------------------------|
D|-------------------------------------------|
A|-------------------------------------------|
E|-88-88-88---88-88-88---44-44-44---33-33-33-|

Bridge
G|-----------------------------------------------------------|
D|-----------------------------------------------------------|
A|-444xxx--444xxx—888/-\888/-\----444xxx--444xxx—8\3-33333/8-|
E|-----------------------------------------------------------|

•	10_My last breath
Intro - Chorus
G|-------------------|
D|-7-9-7-6-----------|
A|---------4-5/7-7/9-|
E|-------------------|

Verse
G|--------------|
D|--------------|
A|-2----6--8--9-|
E|--------------|

bridge
G|-------|----------------------------------------|
D|-------|----------------------------------------|
A|999999-|-4444xx-444xx-777-55-444xx-444xx-777-55-| many times
E|-------|----------------------------------------|

•	11_Whisper
Intro
G|--7-8-7-8-7h8p5b-|--7-8-7-8-7-8-7-5-7-|--7-8-7-8-------|--7-8-7-8-7-8-7-5--|
D|-----------------|--------------------|------------10b-|-----------------8-|
A|-5-5-5-5---------|-5-5-5--------------|-5-5-5-5-5h6----|-5-5-5-------------|
E|-----------------|--------------------|----------------|-------------------|

Chorus
G|-------------|
D|--8-----8-5--|
A|-5-3-------3-| x2
E|-------------|

Outro (1st chorus)
G|--7-8-7-8-7h8p5b-|--7-8-7-8-7-8-7-5-7-|
D|-----------------|--------------------|
A|-5-5-5-5---------|-5-5-5--------------|
E|-----------------|--------------------|

Bridge
G|--------------|
D|--------------|
A|x5-xx5-x5-xx5-| x8
E|--------------|

Bass solo
G|------------------------------|-----------------------------------------------|
D|7b-7p5h7--8b-8p7h8------------|7b-7p5h7---------------------------------------|
A|------------------10b-10p8h10-|--------8b-8p7h8--10b-8p7h8----8p7-8p7-8p7b-77-|
E|------------------------------|-----------------------------------------------|

G|-------------------------------------------------------|
D|----------------7-8\7\5-10b-10-10-10-8-7h8p5--777-8-7b-|
A|5-8\7/8-10-8\7/8---------------------------------------|
E|-------------------------------------------------------|

End
G|-----------|
D|-----------|
A|-xxx-xxxxx-

I think they're 99,9999999% correct so... good play!


X UnderTaker X
comments
print report bad tab
2 comments total.
0 reply
ClosedRoad 601 wrote on November 21 2007, 07:13 am

some song are complete wrong, tune your bass drop D and retab.

-1 reply
Crusheer 110 wrote on July 8 2009, 11:14 am

I agree with ClosedRoad.

I want to post or [tab]
guest
You may want to rate the tab now too:
select rating
Please do not post tabs as comments. Select "correction" instead!