Oops, an error
Loading. Please wait.

Farther Away Tab

version 3
version 3

Whole song

Interactive

877 views 1 this week
3 commentsread comments
1 2 3 4 5
please rate
add to favorites
launch autoscroll
font size
0
reset
how to read this tab
guitar tuner
Autoscroll
slow
fast
+/-
esc
set tempo
stop
Help us to improve Ultimate-Guitar.com Take our survey!
×
Author
Tuning
D A D G B E
Song: Farther Away
Artist: Evanescence
Album: Anywhere but Home

Tuning: Drop D

I just thought I'd tab the 'Anywhere but Home' version of this song
It's not that different from the original, just some small differences
Contact me at lil_miz_evanescence@hotmail.com



Guitar 1 (0:11 - 0:33)
E|-----------------------------------------------|
B|-----------------------------------------------|
G|-----------------------------------------------|__x7 (Heavily distorted, possibly
D|---0-0-0-0---0-0-0-0-0---0-0-------------------|      palm-muted)
A|---0-0-0-0---0-0-0-0-0---0-0-------------------|
D|---0-0-0-0---0-0-0-0-0---0-0-------------------|

Guitar 2 (0:25 – 0:33)
E|-----------------------------------------------|
B|---5b-5b-5b-5b-5b-5b-5b-5b-5b-5b-5b-5b-5b-5b---|
G|-----------------------------------------------|     (Fades in, gradually bending
D|-----------------------------------------------|      more each time)
A|-----------------------------------------------|
D|-----------------------------------------------|

Guitar 1 (0:34 – 0:45)
E|----------------------------------------------------------|
B|----------------------------------------------------------|
G|----------------------------------------------------------|__x2 (Slide down second
D|----------------------------------------------------------|      time)
A|---0-0-0---2-2-2---2h3p2---2/5-5-5-3-3-3-2-2-2h3p2--------|
D|---------2-------2-------2-------------------------2(\)---|

Guitar 2 (0:34 – 0:45)
E|---8-8-8-------8---7-7-7-------7---5b-5b-5b-5b-5b---|
B|---------5-5-5---5-------7-7-7---5------------------|
G|----------------------------------------------------|
D|----------------------------------------------------|
A|----------------------------------------------------|
D|----------------------------------------------------|

E|---8-8-8-------8---10-10-10-7-7-7-8-------------------|
B|---------5-5-5---5------------------5b-5b-5b-5b-5b\---|
G|------------------------------------------------------|
D|------------------------------------------------------|
A|------------------------------------------------------|
D|------------------------------------------------------|


Guitars Muted (0:46 - 1:05)
E|-----------------------------------------------|
B|-----------------------------------------------|
G|-----------------------------------------------|
D|-----------------------------------------------|
A|-----------------------------------------------|
D|-----------------------------------------------|


Guitar 1 (1:06 – 1:30)
E|----------------------------------------------------------|
B|----------------------------------------------------------|
G|----------------------------------------------------------|__x4 (Slide down last
D|----------------------------------------------------------|      time)
A|---0-0-0---2-2-2---2h3p2---2/5-5-5-3-3-3-2-2-2h3p2--------|
D|---------2-------2-------2-------------------------2(\)---|

Guitar 2 (1:06 – 1:30)
E|---8-8-8-------8---7-7-7-------7---5b-5b-5b-5b-5b/---|
B|---------5-5-5---5-------7-7-7---5-------------------|
G|-----------------------------------------------------|
D|-----------------------------------------------------|\
A|-----------------------------------------------------| \
D|-----------------------------------------------------|  \
                                                           \__x2
E|---8-8-8-------8---10-10-10-7-7-7-8---------------------|  /
B|---------5-5-5---5------------------5b-5b-5b-5b-5b\-----| /
G|--------------------------------------------------------|
D|--------------------------------------------------------|
A|--------------------------------------------------------|
D|--------------------------------------------------------|


Guitars 1&2 (1:31 – 1:52)
E|-----------------------------------------------|
B|-----------------------------------------------|
G|-----------------------------------------------|__x8 (Heavily distorted, possibly
D|---0-0-0-0---0-0-0-0-0---0-0-------------------|      palm-muted)
A|---0-0-0-0---0-0-0-0-0---0-0-------------------|
D|---0-0-0-0---0-0-0-0-0---0-0-------------------|


Guitar 1 (1:53 - 2:14)
E|----------------------------------------------------------|
B|----------------------------------------------------------|
G|----------------------------------------------------------|__x4 ( \ = Slide down
D|----------------------------------------------------------|          last time)
A|---0-0-0---2-2-2---2h3p2---2/5-5-5-3-3-3-2-2-2h3p2--------|
D|---------2-------2-------2-------------------------2(\)---|

Guitar 2 (1:53 – 2:14)
E|---8-8-8-------8---7-7-7-------7---5b-5b-5b-5b-5b/---|
B|---------5-5-5---5-------7-7-7---5-------------------|
G|-----------------------------------------------------|
D|-----------------------------------------------------|\
A|-----------------------------------------------------| \
D|-----------------------------------------------------|  \
                                                           \__x2
E|---8-8-8-------8---10-10-10-7-7-7-8---------------------|  /
B|---------5-5-5---5------------------5b-5b-5b-5b-5b\-----| /
G|--------------------------------------------------------|
D|--------------------------------------------------------|
A|--------------------------------------------------------|
D|--------------------------------------------------------|


Guitars 1&2 (2:15 – 2:40)
E|--------------------------------------------------------|
B|---------0-------------0-------------0------------------|
G|-------5---5-2-------5---5-2-------5---5-2---5----------|__x2
D|-----2-------------2-------------2-----------x----------|
A|---0-------------2-------------5-------------3----------|
D|-------------------------------------------------/14\---|
                                               ^Not too sure about that one


Guitar 1 (2:41 – 3:03)
E|----------------------------------------------------------|
B|----------------------------------------------------------|
G|----------------------------------------------------------|__x4 ( \ = Slide down
D|----------------------------------------------------------|          last time)
A|---0-0-0---2-2-2---2h3p2---2/5-5-5-3-3-3-2-2-2h3p2--------|
D|---------2-------2-------2-------------------------2(\)---|

Guitar 2 (2:41 – 3:03)
E|---8-8-8-------8---7-7-7-------7---5b-5b-5b-5b-5b/---|
B|---------5-5-5---5-------7-7-7---5-------------------|
G|-----------------------------------------------------|
D|-----------------------------------------------------|\
A|-----------------------------------------------------| \
D|-----------------------------------------------------|  \
                                                           \__x2
E|---8-8-8-------8---10-10-10-7-7-7-8---------------------|  /
B|---------5-5-5---5------------------5b-5b-5b-5b-5b\-----| /
G|--------------------------------------------------------|
D|--------------------------------------------------------|
A|--------------------------------------------------------|
D|--------------------------------------------------------|


Guitar 1 (3:04 – 3:25)
E|----------------------------------------------------------|
B|----------------------------------------------------------|
G|----------------------------------------------------------|__x4 ( \ = Slide down
D|----------------------------------------------------------|          last time)
A|---0-0-0---2-2-2---2h3p2---2/5-5-5-3-3-3-2-2-2h3p2--------|
D|---------2-------2-------2-------------------------2(\)---|

Guitar 2 (3:04 – 3:25)
E|---8-8-8-------8---7-7-7-------7---5b-5b-5b-5b-5b/---|
B|---------5-5-5---5-------7-7-7---5-------------------|
G|-----------------------------------------------------|
D|-----------------------------------------------------|\
A|-----------------------------------------------------| \
D|-----------------------------------------------------|  \
                                                           \__x2
E|---8-8-8-------8---10-10-10-7-7-7-8---------------------|  /
B|---------5-5-5---5------------------5b-5b-5b-5b-5b\-----| /
G|--------------------------------------------------------|
D|--------------------------------------------------------|
A|--------------------------------------------------------|
D|--------------------------------------------------------|

Guitar 1 (3:26 – 4:33)
E|-----------------------------------------------|
B|-----------------------------------------------|
G|-----------------------------------------------|__x24 (Heavily distorted, possibly
D|---0-0-0-0---0-0-0-0-0---0-0-------------------|       palm-muted)
A|---0-0-0-0---0-0-0-0-0---0-0-------------------|
D|---0-0-0-0---0-0-0-0-0---0-0-------------------|

Guitar 2 (3:26 – 3:48)
E|-----------------------------------------------|
B|---5b-5b-5b-5b-5b-5b-5b-5b-5b-5b-5b-5b-5b-5b---|     (Bending consistently. I can’t
G|-----------------------------------------------|      tell what effect pedal is
D|-----------------------------------------------|      being used. Sounds like there
A|-----------------------------------------------|      is some dive-bombing going on)
D|-----------------------------------------------|

Guitar 2 (3:49 – 4:33)
E|-----------------------------------------------|
B|-----------------------------------------------|
G|-----------------------------------------------|__x16 (Heavily distorted, possibly
D|---0-0-0-0---0-0-0-0-0---0-0-------------------|       palm-muted)
A|---0-0-0-0---0-0-0-0-0---0-0-------------------|
D|---0-0-0-0---0-0-0-0-0---0-0-------------------|
Suggest correction new What's this?
You can suggest a correction to this tab. Community and Mods will review your correction and vote to approve or reject it.
comments
We did not receive enough feedback on this tab! Please rate:
print report bad tab
1 2 3 4 5
3 comments total.
0 reply
guitar_gringo_ 10 wrote on October 11 2007, 03:25 pm

guitar_gringo just added a new tab........wildest 1 u'll ever find......solo,,chords,,,it's art,,its so beautiful

0 reply
Seth Shadows 6,719 wrote on November 29 2007, 02:29 pm

Shelly_Belly > Guitar_Gringo_ >_>

:)

0 reply
shelly_belly 380 wrote on January 23 2011, 12:57 am

Thanks Seth haha :)

guest
You may want to rate the tab now too:
select rating
Please do not post tabs as comments. Select "correction" instead!