Oops, an error
Loading. Please wait.
We have an official Going Under tab made by UG professional guitarists. Check out the tab »
×
45,277 views 45 this week
14 commentsread comments
1 2 3 4 5
x 37
add to favorites
×
Save as Personal and add changes to this tab that will be seen only by you. Learn more ›
×
You can save this tab as Personal to edit and correct it or add notes. All changes will be seen only by you. Learn more »
launch autoscroll
font size
0
reset
how to read this tab
guitar tuner
backing track
0:00
0:00
edit
Autoscroll
slow
fast
+/-
esc
set tempo
stop
Author
Tuning: Standard

[Verse]
e|------------------------------------------------------------------------|
B|------------------------------------------------------------------------|
G|------------------------------------------------------------------------|
D|-44--444----------------------------------------------------------------|
A|-22--222-x8-------------------------------------------------------------|
D|-22--222----------------------------------------------------------------|

[Chorus]
e|-------------------------------------------------------------------------|
B|-------------------------------------------------------------------------|
G|-------------------------------------------------------------------------|
D|-4444-5555-7777-7777-----------------------------------------------------|
A|-2222-5555-5555-7777---x4------------------------------------------------|
E|-2222-3333-5555-5555-----------------------------------------------------|

[Bridge] 
(before solo)
e|-------------------------------------------------------------------------|
B|-------------------------------------------------------------------------|
G|-------------------------------------------------------------------------|
D|-5555555--444444--44444--------------------------------------------------|
A|-5555555--444444--22222--------------------------------------------------|
E|-3333333--222222--22222--------------------------------------------------|

[Solo]
e|-------------------------------------------------------------------------|
B|---------------------------------------------------10b12b10--8h10p8------|
G|----------7h9p7-------------7h9p7-----------------------------------11p9-|
D|-------7h9-----9p7--9-----7------9p7-9p7---------------------------------|
A|----7h9---------------------------------9p7-9p7--------------------------|
E|-------------------------------------------------------------------------|

e|-------------------------------------------------------------------------|
B|-------------------------------------------------------------------------|
G|-9p7--------------9p7----------------------------------------------------|
D|----9p7--7h9--7h9--------------------------------------------------------|
A|-------------------------------------------------------------------------|
E|-------------------------------------------------------------------------|



************************************

| x  Dead note
| h  Hammer-on
| p  Pull-off
| b  Bend

************************************

            
            
Suggest correction
Creating personal tab
Creating personal tab
You can edit any tab online and save it as your Personal.

You can edit, replace or remove any tab part or add personal notes – all changes will be seen only by you.

Personal tabs can be accessed anytime from any device, even offline.
Learn more »
comments
print report bad tab
14 comments total. Showing first comments.
0 reply
TenTonHammer 230 Sep 07, 2003 08:00 PM

eeuhm, i think it's terribly off. don't they use barritones? any still a "cheers" for the effort :)

-dan

0 reply
!_ToToy_! 40 Oct 12, 2003 08:00 PM

sounds great but the chorus im still on doubt
=)

+1 reply
!_ToToy_! 40 Oct 12, 2003 08:00 PM

i mean its great and all but chorus isnt like that

thats what i meant

=) great tab for first time

guest
You may want to rate the tab now too:
select rating
Wanna post a correction for this tab? Suggest correction