Oops, an error
Loading. Please wait.

Haunted Tab

version 2
version 2

Solo

  • This is the whole solo to Evanescence's "Haunted" ... Show more

Whole song

52 views 3 this week
no commentswrite comment
1 2 3 4 5
3 more votes to show rating
add to favorites
launch autoscroll
font size
0
reset
how to read this tab
guitar tuner
Autoscroll
slow
fast
+/-
esc
set tempo
stop
Author
Difficulty
Tuning
intermediate
D A D G B E
About this tab version
This is the whole solo to Evanescence's "Haunted" on their album "Fallen." Mind yourself that Ben Moody uses a wah pedal for it, so for the full effect, a wah is recommended - however it isn't required. The solo (and the song as a whole) is in Drop D, with no capo used. Was this info helpful? Yes No
                                                                 *
e|-----------------|----------------------|----------------------------|
B|-8---7---5---7---|-5-~~~~~~~~~~~-/7---5-|-4~~~-4h5p4--4--------------|
G|-----------------|----------------------|-----------6---6-4-6--6b---r|
D|-----------------|----------------------|----------------------------|
A|-----------------|----------------------|----------------------------|
D|-----------------|----------------------|----------------------------|

          *                                   *
e|------------------------------------------|--------------------------------|
B|------------------------------------------|--------------------------------|
G|-4h6~~~-6b---r4h6~~-4h6-4h6p4h6p4h6p4-----|-6~~~-4h6p4---4-----------------|
D|--------------------------------------6h4-|------------7---7-6-4---4-------|
A|------------------------------------------|----------------------7---7-6---|
D|------------------------------------------|------------------------------7-|

   *                    *
e|-----------------------------------|-----------------------------------------------------|
B|-----------------------------------|-5-4---4h5p4---4h5p4--4h5p4--4h5p4--4h5p4--4h5h7p5p4-|
G|------------------6p4-6~~-4h6-6b---|-----6-------6------6------6------6------6-----------|
D|------------4h6h7------------------|-----------------------------------------------------|
A|-4~~~-4h6h7------------------------|-----------------------------------------------------|
D|-----------------------------------|-----------------------------------------------------|

                            *
e|----------------------------------|-------------------------------------|
B|/7~~~-5-4~~~-4h5-4~~~-4h5-4~~~-4h5|/7--5--7--9-h10--9--7~~~-9p7s5~~~-h7-|
G|----------------------------------|-------------------------------------|
D|----------------------------------|-------------------------------------|
A|----------------------------------|-------------------------------------|
D|----------------------------------|-------------------------------------|

  (over chorus)
e|--------------------|
B|-5-~~~~~~~----------|
G|--------------------|
D|--------------------|
A|--------------------|
D|--------------------|


************************************

| /  Slide up into note
| s  Legato slide
| h  Hammer-on
| p  Pull-off
| b  Bend (all full tone)
| r  Release bend
| ~  Vibrato
| *  Artificial Harmonic

************************************
Suggest correction
Give kudos to tab author, rate the tab!
1 2 3 4 5
comments
print report bad tab
guest
You may want to rate the tab now too:
select rating
Wanna post a correction for this tab? Suggest correction