Oops, an error
Loading. Please wait.

Haunted Bass Tab

version 2
version 2

Whole song

  • More accurate, and more complete tab, all the sessions described.

Interactive

10 views 1 this week
no commentswrite comment
1 2 3 4 5
3 more votes to show rating
add to favorites
launch autoscroll
font size
0
reset
guitar tuner
Autoscroll
slow
fast
+/-
esc
set tempo
stop
Help us to improve Ultimate-Guitar.com Take our survey!
×
Author
Difficulty
Tuning
novice
B E A D F# B
About this tab version
More accurate, and more complete tab, all the sessions described. Was this info helpful? Yes No
Title: Haunted
Artist: Evanescence
Album: Fallen
Bassist: Francesco DiCosmo
Composer: David Hodges / Amy Lee / Ben Moody
Tabbed By: FLBatista


CHORUS (Watching me, wanting me...):

G|--------------------------------|-------------------------------|
D|--------------------------------|-------------------------------|
A|--------------------------------|-------------------------------|
E|--------------------------------|-------------------------------|
B|-5---5--5---\----------5--5---5-|-3---3--3---\---------3--3---3-|

G|--------------------------------|-------------------------|
D|--------------------------------|-------------------------|
A|--------------------------------|-------------------------|
E|------------------------------5-|-7--7--------------------|
B|-5---5--5---\----------5--5-----|-------0--0--0--0--3--3--|

G|--------------------------------|-------------------------------|
D|--------------------------------|-------------------------------|
A|--------------------------------|-------------------------------|
E|--------------------------------|-------------------------------|
B|-5---5--5---\----------5--5---5-|-3---3--3---\---------3--3---3-|

G|--------------------------------|-------------------------|--------|
D|--------------------------------|-------------------------|--------|
A|--------------------------------|-------------------------|--------|
E|--------------------------------|-------7--7--------------|--------|
B|-5---5--5---\----------5--5---5-|-0--0--------0--0--3--3--|-5-\----|


VERSE (Hunting you...):

G|---------------------------|x8
D|---------------------------|
A|---------------------------|
E|-0-0-0--0-0-0----0--0------|
B|---------------------------|


CHORUS (Watching me, wanting me...):

G|--------------------------------|-------------------------------|
D|--------------------------------|-------------------------------|
A|--------------------------------|-------------------------------|
E|--------------------------------|-------------------------------|
B|-5---5--5---\----------5--5---5-|-3---3--3---\---------3--3---3-|

G|--------------------------------|-------------------------|
D|--------------------------------|-------------------------|
A|--------------------------------|-------------------------|
E|------------------------------5-|-7--7--------------------|
B|-5---5--5---\----------5--5-----|-------0--0--0--0--3--3--|

G|--------------------------------|-------------------------------|
D|--------------------------------|-------------------------------|
A|--------------------------------|-------------------------------|
E|--------------------------------|-------------------------------|
B|-5---5--5---\----------5--5---5-|-3---3--3---\---------3--3---3-|

G|--------------------------------|----------------------------|
D|--------------------------------|----------------------------|
A|--------------------------------|----------------------------|
E|--------------------------------|-7--7--7--7--7---7-7--7---7-|
B|-5---5--5---\----------5--5---5-|---------------7--------7---|


GUITAR SOLO:

G|--------------------------|---------------------------|
D|--------------------------|---------------------------|
A|-4---4-4---4----4-----4---|-2---2-0-------------------|
E|--------------4-----4---4-|---------2-0---------7-----|
B|--------------------------|-------------0--0--0----0--|

G|-----------------------------|-----------------------------|
D|-----------------------------|-----------4-6----6--4-------|
A|-----------2-4----4-4--4---4-|-------4/6------6------6-4-2-|
E|-------2-4------4--------4---|-4---4-----------------------|
B|-2---2-----------------------|-----------------------------|

G|-----------------------------|----------------------------|-----------------------------|
D|-----------------------------|----------------------------|-----------------------------|
A|-4---2h4-2--------2-4----4---|-2---2-0--------------------|-----------2-4----4-4--4-2---|
E|-----------4----4------4---4-|---------2-0------------7---|-------2/4------4----------4-|
B|-------------2---------------|-------------0--0--0--0---0-|-2---2-----------------------|

G|-----------------------------|------------------------------|
D|-----------------------------|------------------------------|
A|-----------2-4----4-4--4-2---|-2---2-2--2-2-2-2-0-0---------|
E|-------2/4------4----------4-|----------------------4-4-2-2-|
B|-2---2-----------------------|------------------------------|


VERSE 2 (Ah... I can feel...):

G|---------------------------------|-------------------------------|
D|---------------------------------|-------------------------------|
A|---------------------------------|-------------------------------|
E|---------------------------------|-------------------------------|
B|-5---5--5---\-----------5--5---5-|-3---3--3---\---------3--3---3-|

G|--------------------------------|-------------------------|
D|--------------------------------|-------------------------|
A|--------------------------------|-------------------------|
E|------------------------------5-|-7--7--------------------|
B|-5---5--5---\----------5--5-----|-------0--0--0--0--3--3--|

G|--------------------------------|-------------------------------|
D|--------------------------------|-------------------------------|
A|--------------------------------|-------------------------------|
E|--------------------------------|-------------------------------|
B|-5---5--5---\----------5--5---5-|-3---3--3---\---------3--3---3-|

G|-----------------------------------|-------------------------|
D|-----------------------------------|-------------------------|
A|-----------------------------------|-------------------------|
E|---------------------------5-----5-|-7--7--7--7--------------|
B|-5---5--5---5----------5-5---5-5---|-------------0--0--3--3--|


VERSE RIFF:

G|---------------------|
D|---------------------|
A|---------------------|
E|---------------------|
B|-5-5-5--5-5-5--5--5--|


*****************************
h : Hammer On
/ : Slide Up
\ : Slide Down
*****************************
Suggest correction
Give kudos to tab author, rate the tab!
1 2 3 4 5
comments
print report bad tab
guest
You may want to rate the tab now too:
select rating
Wanna post a correction for this tab? Suggest correction