Oops, an error
Loading. Please wait.

Hello Tab

version 1
version 1

Whole song

Interactive

45,320 views 21 this week
8 commentsread comments
1 2 3 4 5
x 11
add to favorites
launch autoscroll
font size
0
reset
how to read this tab
guitar tuner
×
Best way to learn
"Hello"
Autoscroll
slow
fast
+/-
esc
set tempo
stop
[Riff 1]
e|-----------------------------|
B|--------3-3---2-2--------2---|
G|-------------------2-2-------|
D|-----4-----------------------|
A|---2-------------------------| 
E|-----------------------------|

(This one's played on a "Amajor" kinda chord:)
e|-----------------------------|
B|------------2--0-------------|
G|--------2---------2----------|
D|-----2----2------------------|
A|--0--------------------------|
E|-----------------------------|

(This one's on a F#m kinda chord:)
e|-----------------------------|
B|--------------2---3-2-2-----2|
G|----------------2-------4-2--|
D|---------4-------------------|
A|------4----4-----------------|
E|---2-------------------------|

[Riff 2]
e|--------------------------------------2-|
B|----------------------------------------|
G|----------------------------------------|
D|----------------------------------------|
A|--2-2--4--5--4-0--2-4-5-2--2h4--5-4-0---|
E|----------------------------------------|

[Riff 2]
(b)
e|----------------------2--|
B|-------------------------|
G|-------------------------|
D|-------------------------|
A|--4--0-0--2--4--2--0-----|
E|-------------------------|

[Riff 2]
(c)
e|---------------------------------|
B|---------------------------------|
G|---------------------------------|
D|---------------------------------|
A|--2-2--4-5----2--4--5--5--4-0--2-| 
E|------------0--------------------|



************************************

| h  Hammer-on

************************************
Suggest correction
comments
print report bad tab
8 comments total. Showing first comments.
0 reply
brittneyjc2003 51 Dec 17, 2004 07:00 PM

This is a Great song, and as far as I can tell, these tabs seem to be correct, but I did find a couple very minor misses on the lyrics. But you did aa Awesome job... keep it up!

0 reply
brittneyjc2003 51 Dec 17, 2004 07:00 PM

Oh... that should have been, *an* awesome job!

0 reply
emohair 10 Feb 28, 2006 06:22 PM

great tab 5stars

guest
You may want to rate the tab now too:
select rating
Wanna post a correction for this tab? Suggest correction