Oops, an error
Loading. Please wait.

If You Dont Mind Tab

1,062 views 1 this week
1 commentread comment
1 2 3 4 5
excellent!
x 3
add to favorites
launch autoscroll
font size
0
reset
how to read this tab
guitar tuner
Tab Pro tools
  • play this tab
  • loop segment
  • change instrument
  • show fretboard
  • metronome
×
Best way to learn
"If You Dont Mind"
Autoscroll
slow
fast
+/-
esc
set tempo
stop
Contributor
Difficulty
Tuning
intermediate
B F# B E G# C#
-----------------------------------------------------------------------
                        If You Don't Mind by Evanescence
------------------------------------------------------------------------
Tabbed by: LetsStartARiot
E-mail: hilarymtz93@yahoo.com

Tuning: Drop B

PLEASE READ FIRST:
This song isn't officially released, so I had to figure it all out by live recordings.
I know it's probably not 100%, but it's pretty close.

Intro:

e|-------------------------------------------------------------------|
B|-------------------------------------------------------------------|
G|-------------------------------------------------------------------|
D|-------------------------------------------------------------------|
A|----0---3b--------------------0---3b------------3b-3b--------------|
E|--5---5----53-3-3-33-222----5---5-----5-1-1-1----------------------|

e|-------------------------------------------------------------------|
B|-------------------------------------------------------------------|
G|-------------------------------------------------------------------|
D|-------------------------------------------------------------------|
A|----0---3b--------------------0---3b-------------------------------|
E|--5---5----53-3-3-33-222----5---5-----5-1-1-11111------------------|

Verse 1:
Rest until 0:27 (Wasted my energy...) then

e|-----------------------------------------------------------------|
B|-----------------------------------------------------------------|
G|-----------------------------------------------------------------|
D|-----------------------------------------------------------------|
A|---4444443333----0000000000----4444443333----00------------------|
E|---4444443333----0000000000----4444443333----00------------------|
     ..........    ..........    ..........    ..

Chorus:
Listen for the rhythm

e|------------------------|-----------------------------------------|
B|------------------------|-----------------------------------------|
G|------------------------|-----------------------------------------|
D|---7-----3----5--2---3--|---7-----3----5--2---5---3-2-------------|
A|---7-----3----5--2---3--|---7-----3----5--2---5---3-2-------------|
E|---7-----3----5--2---3--|---7-----3----5--2---5---3-2-------------|

Intro

e|-------------------------------------------------------------------|
B|-------------------------------------------------------------------|
G|-------------------------------------------------------------------|
D|-------------------------------------------------------------------|
A|----0---3b--------------------0---3b------------3b-3b--------------|
E|--5---5----53-3-3-33-222----5---5-----5-1-1-1----------------------|

e|-------------------------------------------------------------------|
B|-------------------------------------------------------------------|
G|-------------------------------------------------------------------|
D|-------------------------------------------------------------------|
A|----0---3b--------------------0---3b-------------------------------|
E|--5---5----53-3-3-33-222----5---5-----5-1-1-11111------------------|

Verse 2
(Starts right away at 1:17ish)
e|--------------------------------------------------------------------|
B|--------------------------------------------------------------------|
G|--------------------------------------------------------------------|
D|--------------------------------------------------------------------|
A|--4444443333---0000000000---4444443333---0000000000-----------------|
E|--4444443333---0000000000---4444443333---0000000000-----------------|
    ..........   ..........   ..........   ..........

e|--------------------------------------------------------------------|
B|--------------------------------------------------------------------|
G|--------------------------------------------------------------------|
D|--------------------------------------------------------------------|
A|--7777776666666666555555444444444433333322222222222222222222222222--|
E|--7777776666666666555555444444444433333322222222222222222222222222--|
    ....................................................
                                               (Gradually release palm mute)

Chorus:
Listen for the rhythm

e|------------------------|-----------------------------------------|
B|------------------------|-----------------------------------------|
G|------------------------|-----------------------------------------|
D|---7-----3----5--2---3--|---7-----3----5--2---5---3-2-------------|
A|---7-----3----5--2---3--|---7-----3----5--2---5---3-2-------------|
E|---7-----3----5--2---3--|---7-----3----5--2---5---3-2-------------|

Solo:
(I know this isn't 100% either because of the palm mute part (the 23232) at around 2:10,
but everything else is right. If you want, use a Wah pedal so the palm muted part 
doesn't sound too weird.)

e|------------------------------------------------------------------|
B|------------------------------------------------------------------|
G|------------------------------------------------------------------|
D|--/666------------------------------------------------------------|
A|--------8-7~-------------/5~--------------------------------------|
E|-------------23232323---------------------------------------------|
               ........
e|------------------------------------------------------------------|
B|------------------------------------------------------------------|
G|------------------------------------------------------------------|
D|------------------------------------------------------------------|
A|-------------------------/11111112121211~-------------------------|
E|--101010999--7--1010109----(^11's)--------------------------------|
   (^10's)

Bridge:
Same as chorus but clean

e|----------------------------|
B|----------------------------|
G|----------------------------|
D|---7-----3----5---2---3~----|
A|---7-----3----5---2---3~----|
E|---7-----3----5---2---3~----|

Chorus

e|-------------------------|
B|-------------------------|
G|-------------------------|
D|---7-----3----5--2---3-2-|
A|---7-----3----5--2---3-2-|
E|---7-----3----5--2---3-2-|

Outro/Intro

e|-------------------------------------------------------------------|
B|-------------------------------------------------------------------|
G|-------------------------------------------------------------------|
D|-------------------------------------------------------------------|
A|----0---3b--------------------0---3b------------3b-3b--------------|
E|--5---5----53-3-3-33-222----5---5-----5-1-1-1----------------------|

e|-------------------------------------------------------------------|
B|-------------------------------------------------------------------|
G|-------------------------------------------------------------------|
D|-------------------------------------------------------------------|
A|----0---3b--------------------0---3b-------------------------------|
E|--5---5----53-3-3-33-222----5---5-----5-11-------------------------|



************************************

| /   slide up
| \   slide down
| h   hammer-on
| p   pull-off
| ~   vibrato
| +   harmonic
| x   Mute note
| b   Bend
| pb  Pre-bend
| br  Bend release
| pbr Pre-bend release
| brb Bend release bend
comments
We did not receive enough feedback on this tab! Please rate:
print report bad tab
1 2 3 4 5
1 comment total.
0 reply
jootani wrote on December 15 2012, 07:37 pm

pls make a guitar pro ver. of this. thanks.

I want to post or [tab]
guest
You may want to rate the tab now too:
select rating
Please do not post tabs as comments. Select "correction" instead!