Oops, an error
Loading. Please wait.

Imaginary Tab

version 4
version 4
1,053 views 3 this week
no commentswrite comment
1 2 3 4 5
3 more votes to show rating
add to favorites
launch autoscroll
font size
0
reset
how to read this tab
guitar tuner
Autoscroll
slow
fast
+/-
esc
set tempo
stop
Help us to improve Ultimate-Guitar.com Take our survey!
×
Author
Tuning
D A D G B E
Song title: Imaginary
Artist: Evanescence
Album: Evanescence EP (1998)
Tabbed by: dark falco3000
E-mail: dark_falco3000@hotmail.com

This is a tab for the oldest version of imaginary. This is NOT for the Origins, Fallen
not for your ears or any other version of this song, this is the Evanescence EP version,
one released in 1998 at a concert. Feel free to comment, praise or criticise this tab. 
before you criticise make sure you’ve actually listened to this version of the song.

Oh and I’m aware that this probably isn’t perfect, this is my interpretation of the
it’s not supposed to be perfect.

Tuning: Drop D (D A D G B E)

Fig 1
|---------------------------------|
|-------------------------5-4-0-5-|
|---------------------------------|
|---2---2---2---2---2---2---------|
|---2-2-2-3-2-2-2-3-2-2-2-2-------|
|-2-------------------------------|

Fig 2
|-----------------------------------------------|
|-----------------------------------------------|
|-----------------------------------------------|
|-2---10---9-9-7-7-5-5-2---10---10-10-12-12-9-9-|
|-2---10---9-9-7-7-5-5-2---10---10-10-12-12-9-9-|
|-2---10---9-9-7-7-5-5-2---10---10-10-12-12-9-9-|

|------------------------------------------------|
|------------------------------------------------|
|------------------------------------------------|
|-2---10---9-9-7-7-5-5-2---10-10h12-9--9-7-5-4-2-|
|-2---10---9-9-7-7-5-5-2---10-10h12-9--9-7-5-4-2-|
|-2---10---9-9-7-7-5-5-2---10-10h12-9--9-7-5-4-2-|

Fig 3
|----------------------------------------------------------------|
|-----------------------------------------7--------------7-------|
|-------------------------------------7-----7---7----7-----7---7-|
|---------2-----------------2---2---7---7-----7----7---7-----7---|
|-----2-----2---2-----2---5---5---5-------------5----------------|
|-2-5---5-----5---2-5---5----------------------------------------|

Fig 4
|---------------------------------|
|---------------------------------|
|-------------------------555-4-7-|
|-222-4-5-777-5-4-222-4-5-555-4-7-|
|-222-4-5-777-5-4-222-4-5-333-2-5-|
|-222-4-5-777-5-4-222-4-5---------|

Solo
|---------------------------------------|
|---------------------------------------|
|-4-6-4---------------------------------|
|-------7-5--7-----0-2-2-5--4-4h5p4-0-2-|
|---------------------------------------|
|--------------2------------------------|

|-----------------------------------------------------------------------------------|
|-----------------------------------------------------------------------------------|
|-----------------------------------------------------------------------------------|
|-0-2-2-5-0-2-5-4-4-4h5-4h5-4h5-4h5-4h5-4h5-4h5-4h5-4h5-4h5-4h5-4h5-4h5-4h5-4h5-4h5-|
|-----------------------------------------------------------------------------------|
|-----------------------------------------------------------------------------------|

|-------------------------------|
|-------------------------------|
|-------------------------------|
|-5--7--4--4h5p4---4--4-2-0-----|
|----------------7----------4-2-|
|-------------------------------|
Suggest correction
Give kudos to tab author, rate the tab!
1 2 3 4 5
comments
print report bad tab
guest
You may want to rate the tab now too:
select rating
Wanna post a correction for this tab? Suggest correction