Oops, an error
Loading. Please wait.

Imaginary Tab

version 5
version 5
2,667 views 3 this week
no commentswrite comment
1 2 3 4 5
accurate
x 5
add to favorites
launch autoscroll
font size
0
reset
how to read this tab
guitar tuner
Autoscroll
slow
fast
+/-
esc
set tempo
stop
Help us to improve Ultimate-Guitar.com Take our survey!
×
Author
-------------------------------------------------------------------------------
                             IMAGINARY - Evanescence
-------------------------------------------------------------------------------
Tabbed by:Kiera
Email:kiera.11@sbcglobal.net

Tuning:Drop B

I looked at all the other tabs for this song and they didn't seem low
 enough or even sound right...I'm not saying mine is 100% right but to me it
sounds better.

Updates
08/22/08-changed bridge(it was on the wrong strings)

Intro
e|-------------------------------------------------|
B|-------------------------------------------------|
G|-------------------------------------------------|
D|--5-5-5--5--5--5-5--5-5\1-1-1--1--1--1-1-1-1/3---|
A|--5-5-5--5--5--5-5--5-5\1-1-1--1--1--1-1-1-1/3---|
E|--5-5-5--5--5--5-5--5-5\1-1-1--1--1--1-1-1-1/3---|

e|-------------------------------------------------|
B|-------------------------------------------------|
G|-------------------------------------------------|
D|--5-5-5--5--5--5-5--5-5\1-1-1--1--1--1-1-1-------|
A|--5-5-5--5--5--5-5--5-5\1-1-1--1--1--1-1-1-5b-5--|
E|--5-5-5--5--5--5-5--5-5\1-1-1--1--1--1-1-1-------|

Verse (with acoustic guitar and strumming up and down and alternate between the Em and D 
chords)
   Em                         D
e|--x-------------------------5-----------------------|
B|--x-------------------------5-----------------------|
G|--x-------------------------5-----------------------|
D|--5-------------------------x-----------------------|
A|--5-------------------------x-----------------------|
E|--5-------------------------x-----------------------|

Verse version 2 -You could also do this instead, it is the same as the piano only for 
or just strum the chords given.
   Em                                              D
e|-------------10----------------------10----------------------8-----------|
B|----11----11----11----11----11----11----11----11----10----10---10----10--|
G|-------12----------12----------12----------12----------10---------10-----|
D|-12----------------------12----------------------10----------------------|
A|-------------------------------------------------------------------------|
E|-------------------------------------------------------------------------|
                         Em
e|-------------8----------------------15----------------------15-----------|
B|----10----10---10----10----15----15----15----15----15----15----15----15--|
G|-------10---------10----------15----------15----------15----------15-----|
D|-10---------------------17----------------------17-----------------------|
A|-------------------------------------------------------------------------|
E|-------------------------------------------------------------------------|
  D
e|-------------13-----------------------13----------|
B|----13----13----13----13-----13----13----13----13-|
G|-------14----------14-----------14----------14----|
D|-15-----------------------15----------------------|
A|--------------------------------------------------|
E|--------------------------------------------------|

Chorus
e|-------------------------------------------------------------------------|
B|-------------------------------------------------------------------------|
G|-------------------------------------------------------------------------|
D|-5-5-5-5-5-5-5-5-5-5-5-5-5-5-5-5--1-1-1-1-1-1-1-1-1-1-1-1-1-1/3----------|
A|-5-5-5-5-5-5-5-5-5-5-5-5-5-5-5-5--1-1-1-1-1-1-1-1-1-1-1-1-1-1/3----------|
E|-5-5-5-5-5-5-5-5-5-5-5-5-5-5-5-5--1-1-1-1-1-1-1-1-1-1-1-1-1-1/3----------|

e|-------------------------------------------------------------------------|
B|-------------------------------------------------------------------------|
G|-------------------------------------------------------------------------|
D|-5-5-5-5-5-5-5-5-5-5-5-5-5-5-5-5--1-1-1-1-1-1-1-1------------------------|
A|-5-5-5-5-5-5-5-5-5-5-5-5-5-5-5-5--1-1-1-1-1-1-1-1-5-5p3-1-0--------------|
E|-5-5-5-5-5-5-5-5-5-5-5-5-5-5-5-5--1-1-1-1-1-1-1-1------------------------|

e|-------------------------------------------------------------------------|
B|-------------------------------------------------------------------------|
G|-------------------------------------------------------------------------|
D|-5-5-5-5-5-5-5-5-5-5-5-5-5-5-5-5--1-1-1-1-1-1-1-1-1-1-1-1-1-1/3----------|
A|-5-5-5-5-5-5-5-5-5-5-5-5-5-5-5-5--1-1-1-1-1-1-1-1-1-1-1-1-1-1/3----------|
E|-5-5-5-5-5-5-5-5-5-5-5-5-5-5-5-5--1-1-1-1-1-1-1-1-1-1-1-1-1-1/3----------|

e|-------------------------------------------------------------------------|
B|-------------------------------------------------------------------------|
G|-------------------------------------------------------------------------|
D|-5-5-5-5-5-5-5-5-5-5-5-5-5-5-5-5--1-1-1-1-1-1-1-1-3-3/5-5-5~-------------|
A|-5-5-5-5-5-5-5-5-5-5-5-5-5-5-5-5--1-1-1-1-1-1-1-1-3-3/5-5-5~-------------|
E|-5-5-5-5-5-5-5-5-5-5-5-5-5-5-5-5--1-1-1-1-1-1-1-1-3-3/5-5-5~-----~-------|

Play Verse before chorus

Chorus
e|-------------------------------------------------------------------------|
B|-------------------------------------------------------------------------|
G|-------------------------------------------------------------------------|
D|----5-5-5-5-5-5-5-5-5-5-5-5-5-5-5-5--1-1-1-1-1-1-1-1-1-1-1-1-1-1/3-------|
A|5~--5-5-5-5-5-5-5-5-5-5-5-5-5-5-5-5--1-1-1-1-1-1-1-1-1-1-1-1-1-1/3-------|
E|----5-5-5-5-5-5-5-5-5-5-5-5-5-5-5-5--1-1-1-1-1-1-1-1-1-1-1-1-1-1/3-------|

e|-------------------------------------------------------------------------|
B|-------------------------------------------------------------------------|
G|-------------------------------------------------------------------------|
D|-5-5-5-5-5-5-5-5-5-5-5-5-5-5-5-5--1-1-1-1-1-1-1-1------------------------|
A|-5-5-5-5-5-5-5-5-5-5-5-5-5-5-5-5--1-1-1-1-1-1-1-1-5-5p3-1-0--------------|
E|-5-5-5-5-5-5-5-5-5-5-5-5-5-5-5-5--1-1-1-1-1-1-1-1------------------------|

e|-------------------------------------------------------------------------|
B|-------------------------------------------------------------------------|
G|-------------------------------------------------------------------------|
D|-5-5-5-5-5-5-5-5-5-5-5-5-5-5-5-5--1-1-1-1-1-1-1-1-1-1-1-1-1-1/3----------|
A|-5-5-5-5-5-5-5-5-5-5-5-5-5-5-5-5--1-1-1-1-1-1-1-1-1-1-1-1-1-1/3----------|
E|-5-5-5-5-5-5-5-5-5-5-5-5-5-5-5-5--1-1-1-1-1-1-1-1-1-1-1-1-1-1/3----------|

e|-------------------------------------------------------------------------|
B|-------------------------------------------------------------------------|
G|-------------------------------------------------------------------------|
D|-5-5-5-5-5-5-5-5-5-5-5-5-5-5-5-5--1-1-1-1-1-1-1-1-1-1-1-1-1-1-1-1~-------|
A|-5-5-5-5-5-5-5-5-5-5-5-5-5-5-5-5--1-1-1-1-1-1-1-1-1-1-1-1-1-1-1-1~-------|
E|-5-5-5-5-5-5-5-5-5-5-5-5-5-5-5-5--1-1-1-1-1-1-1-1-1-1-1-1-1-1-1-1~-------|

Bridge
e|-------------------------|
B|-------------------------|
G|----7----5----3----2-----|
D|----7----5----3----2-----|
A|----5----3----1----0-----|
E|-------------------------|

Repeat as many times necessary
   Em                                              D
e|-------------10----------------------10----------------------8-----------|
B|----11----11----11----11----11----11----11----11----10----10---10----10--|
G|-------12----------12----------12----------12----------10---------10-----|
D|-12----------------------12----------------------10----------------------|
A|-------------------------------------------------------------------------|
E|-------------------------------------------------------------------------|
                         Em
e|-------------8----------------------15----------------------15-----------|
B|----10----10---10----10----15----15----15----15----15----15----15----15--|
G|-------10---------10----------15----------15----------15----------15-----|
D|-10---------------------17----------------------17-----------------------|
A|-------------------------------------------------------------------------|
E|-------------------------------------------------------------------------|
  D
e|-------------13-----------------------13----------|
B|----13----13----13----13-----13----13----13----13-|
G|-------14----------14-----------14----------14----|
D|-15-----------------------15----------------------|
A|--------------------------------------------------|
E|--------------------------------------------------|

Solo-Palm mute the first chords
e|-------------------------------------------------------------------------|
B|-------------------------------------------------------------------------|
G|------------------12-12-12--14--15---17-17-17--15--14---12-12-12--14--15-|
D|-7-7-7-7-7-7-7-7--x--x--x---x---x----x--x--x---x---x----x--x--x---x---x--|
A|-7-7-7-7-7-7-7-7--10-10-10--12--13---15-15-15--13--12---10-10-10--12--13-|
E|-7-7-7-7-7-7-7-7---------------------------------------------------------|

e|-------------------------------------------------------------------------|
B|-------------------------------------------------------------------------|
G|--8-8-8--7--5---12-12-12--14--15---17-17-17--15--14---12-12-12--14--15---|
D|--x-x-x--x--x---x--x--x---x---x----x--x--x---x---x----x--x--x---x---x----|
A|--6-6-6--5--3---10-10-10--12--13---15-15-15--13--12---10-10-10--12--13---|
E|-------------------------------------------------------------------------|

e|-----------------|
B|-----------------|
G|--8-8-8--7--5~---|
D|--x-x-x--x--x~---|
A|--6-6-6--5--3~---|
E|-----------------|

Chorus
e|-------------------------------------------------------------------------|
B|-------------------------------------------------------------------------|
G|-------------------------------------------------------------------------|
D|-5-5-5-5-5-5-5-5-5-5-5-5-5-5-5-5--1-1-1-1-1-1-1-1-1-1-1-1-1-1/3----------|
A|-5-5-5-5-5-5-5-5-5-5-5-5-5-5-5-5--1-1-1-1-1-1-1-1-1-1-1-1-1-1/3----------|
E|-5-5-5-5-5-5-5-5-5-5-5-5-5-5-5-5--1-1-1-1-1-1-1-1-1-1-1-1-1-1/3----------|

e|-------------------------------------------------------------------------|
B|-------------------------------------------------------------------------|
G|-------------------------------------------------------------------------|
D|-5-5-5-5-5-5-5-5-5-5-5-5-5-5-5-5--1-1-1-1-1-1-1-1------------------------|
A|-5-5-5-5-5-5-5-5-5-5-5-5-5-5-5-5--1-1-1-1-1-1-1-1-5b-5-------------------|
E|-5-5-5-5-5-5-5-5-5-5-5-5-5-5-5-5--1-1-1-1-1-1-1-1------------------------|

e|-------------------------------------------------------------------------|
B|-------------------------------------------------------------------------|
G|-------------------------------------------------------------------------|
D|-5-5-5-5-5-5-5-5-5-5-5-5-5-5-5-5--1-1-1-1-1-1-1-1-1-1-1-1-1-1/3----------|
A|-5-5-5-5-5-5-5-5-5-5-5-5-5-5-5-5--1-1-1-1-1-1-1-1-1-1-1-1-1-1/3----------|
E|-5-5-5-5-5-5-5-5-5-5-5-5-5-5-5-5--1-1-1-1-1-1-1-1-1-1-1-1-1-1/3----------|

e|-------------------------------------------------------------------------|
B|-------------------------------------------------------------------------|
G|-------------------------------------------------------------------------|
D|-5-5-5-5-5-5-5-5-5-5-5-5-5-5-5-5--1-1-1-1-1-1-1-1-3-3/5-5-5~-------------|
A|-5-5-5-5-5-5-5-5-5-5-5-5-5-5-5-5--1-1-1-1-1-1-1-1-3-3/5-5-5~-------------|
E|-5-5-5-5-5-5-5-5-5-5-5-5-5-5-5-5--1-1-1-1-1-1-1-1-3-3/5-5-5~-----~-------|

Outro
e|-------------------------------------------------|
B|-------------------------------------------------|
G|-------------------------------------------------|
D|--5-5-5--5--5--5-5--5-5\1-1-1--1--1--1-1-1-1/3---|
A|--5-5-5--5--5--5-5--5-5\1-1-1--1--1--1-1-1-1/3---|
E|--5-5-5--5--5--5-5--5-5\1-1-1--1--1--1-1-1-1/3---|

e|-------------------------------------------------|
B|-------------------------------------------------|
G|-------------------------------------------------|
D|--5-5-5--5--5--5-5--5-5\1-1-1--1--1--1-1-1-------|
A|--5-5-5--5--5--5-5--5-5\1-1-1--1--1--1-1-1-5b-5--|
E|--5-5-5--5--5--5-5--5-5\1-1-1--1--1--1-1-1-------|

e|-------------------------------------------------|
B|-------------------------------------------------|
G|-------------------------------------------------|
D|--5-5-5--5--5--5-5--5-5\1-1-1--1--1--1-1-1-1/3---|
A|--5-5-5--5--5--5-5--5-5\1-1-1--1--1--1-1-1-1/3---|
E|--5-5-5--5--5--5-5--5-5\1-1-1--1--1--1-1-1-1/3---|

e|-------------------------------------------------|
B|-------------------------------------------------|
G|-------------------------------------------------|
D|--5-5-5--5--5--5-5--5-5\1-1-1--1--1--1-1-1--0~---|
A|--5-5-5--5--5--5-5--5-5\1-1-1--1--1--1-1-1--0~---|
E|--5-5-5--5--5--5-5--5-5\1-1-1--1--1--1-1-1--0~---|

Hope you  enjoy:)
Please rate
Thanks for looking

| b  bend
| /  slide up
| \  slide down
| h  hammer-on
| p  pull-off
| ~  vibrato
| +  harmonic
| x  Mute note
===============================================================================
Suggest correction
What's this?
You can suggest a correction to this tab. Community and Mods will review your correction and vote to approve or reject it.
comments
print report bad tab
guest
You may want to rate the tab now too:
select rating
Please do not post tabs as comments. Select "correction" instead!