Oops, an error
Loading. Please wait.

Imaginary Tab

version 6
version 6
1,222 views 1 this week
1 commentread comment
1 2 3 4 5
x 3
add to favorites
launch autoscroll
font size
0
reset
how to read this tab
guitar tuner
Autoscroll
slow
fast
+/-
esc
set tempo
stop
Help us to improve Ultimate-Guitar.com Take our survey!
×
			     IMAGINARY - Evanescence
-------------------------------------------------------------------------------
Tabbed by: Kelly
Email: kelbobgrrl@yahoo.com

Tuning: Standard EADGBe

I looked at all the other tabs for this song and they didn't seem quite right.
So here's my version. it is 99.99% correct. Please rate and comment. I played this with
the song and it fits perfectly.



Intro
e|------------------------------------------------------|
B|------------------------------------------------------|
G|------------------------5-5-5--5--5--5-5-5-5----5/7---|
D|--2-2-2--2--2--2-2--2-2-5-5-5--5--5--5-5-5-5----5/7-2-|
A|--2-2-2--2--2--2-2--2-2-3-3-3--3--3--3-3-3-3--2-3/5-2-|
E|--0-0-0--0--0--0-0--0-0-------------------------------|

e|----------------------------------------------------|
B|----------------------------------------------------|
G|-------------------------5-5-5--5--5--5-5-5-5-------|
D|--2-2-2--2--2--2-2--2-2--5-5-5--5--5--5-5-5-5-------|
A|--2-2-2--2--2--2-2--2-2--3-3-3--3--3--3-3-3-3-2-2b-2|
E|--0-0-0--0--0--0-0--0-0-----------------------------|

Verse
   Em                         D
e|--0-------------------------2-----------------------|
B|--0-------------------------3-----------------------|
G|--0-------------------------2-----------------------|
D|--2-------------------------0-----------------------|
A|--2-------------------------------------------------|
E|--0-------------------------------------------------|


Chorus
e|-------------------------------------------------------------|
B|-------------------------------------------------------------|
G|------------------------------5--5--5----5--5---5----5/7-----|
D|-2--2--2----2--2----2--2--2---5--5--5----5--5---5----5/7----0|
A|-2--2--2----2--2----2--2--2---3--3--3----3--3---3----3/5-----|
E|-0--0--0----0--0----0--0--0----------------------------------|

e|--------------------------------------------------------------|
B|--------------------------------------------------------------|
G|------------------------------5--5--5----5--5---5-------------|
D|-2--2--2----2--2----2--2--2---5--5--5----5--5---5-------------|
A|-2--2--2----2--2----2--2--2---3--3--3----3--3---3----2-0------|
E|-0--0--0----0--0----0--0--0------------------------------3--2-|

e|-------------------------------------------------------------|
B|-------------------------------------------------------------|
G|------------------------------5--5--5----5--5---5----5/7-----|
D|-2--2--2----2--2----2--2--2---5--5--5----5--5---5----5/7----0|
A|-2--2--2----2--2----2--2--2---3--3--3----3--3---3----3/5-----|
E|-0--0--0----0--0----0--0--0----------------------------------|
				
e|-------------------------------------------------------------|
B|-------------------------------------------------------------|
G|------------------------------5--5--5----5--5---5----5/7-----|
D|-2--2--2----2--2----2--2--2---5--5--5----5--5---5----5/7----0|
A|-2--2--2----2--2----2--2--2---3--3--3----3--3---3----3/5-----|
E|-0--0--0----0--0----0--0--0----------------------------------|


Bridge
e|---------------------------------------|
B|---------------------------------------|
G|----4----4--4--4----4------------------|
D|----4----4--4--4----4------------------|
A|----2----2--2--2----2---/2---0---------|
E|---------------------------------3---2-|

The next part of the bridge is mainly piano, i don't have the guitar part.

This is the way I play the solo.
e|----------------------------------------------------------------------------|
B|----------------------------------------------------------------------------|
G|----------------------------------------------------------------------------|
D|----------------------------------------------------------------------------|
A|-3-2-3-2-3-2-3-2------------------0--0--0-----------------------------------|
E|------------------0--0--0--2--3~-----------3---2~---0--0--0--2--3~----------|

e|-----------------------------------------------------------------------------------|
B|-----------------------------------------------------------------------------------|
G|-----------------------------------------------------------------------------------|
D|--------------0----------------------------------------------------------------0---|
A|-3--3--3--2-----------------------0--0--0-------------------------3--3--3--2-------|
E|-----------------0--0--0--2--3~------------3--2~--0--0--0--2--3~-------------------|

e|----------------------|
B|----------------------|
G|--5--5--5-5--5--5-7---|
D|--5--5--5-5--5--5-7--5|
A|--3--3--3-3--3--3-5--5|
E|----------------------|

Chorus

Outro
e|------------------------------------------------------|
B|------------------------------------------------------|
G|------------------------5-5-5--5--5--5-5-5-5----5/7---|
D|--2-2-2--2--2--2-2--2-2-5-5-5--5--5--5-5-5-5----5/7-2-|
A|--2-2-2--2--2--2-2--2-2-3-3-3--3--3--3-3-3-3--2-3/5-2-|
E|--0-0-0--0--0--0-0--0-0-------------------------------|

e|----------------------------------------------------|
B|----------------------------------------------------|
G|-------------------------5-5-5--5--5--5-5-5-5-------|
D|--2-2-2--2--2--2-2--2-2--5-5-5--5--5--5-5-5-5-------|
A|--2-2-2--2--2--2-2--2-2--3-3-3--3--3--3-3-3-3-2-2b-2|
E|--0-0-0--0--0--0-0--0-0-----------------------------|

e|------------------------------------------------------|
B|------------------------------------------------------|
G|------------------------5-5-5--5--5--5-5-5-5----5/7---|
D|--2-2-2--2--2--2-2--2-2-5-5-5--5--5--5-5-5-5----5/7-2-|
A|--2-2-2--2--2--2-2--2-2-3-3-3--3--3--3-3-3-3--2-3/5-2-|
E|--0-0-0--0--0--0-0--0-0-------------------------------
						[hold this until fade]
e|-----------------------------------------------------|
B|-----------------------------------------------------|
G|-------------------------5-5-5--5--5--5-5-5-5-2------|
D|--2-2-2--2--2--2-2--2-2--5-5-5--5--5--5-5-5-5-2------|
A|--2-2-2--2--2--2-2--2-2--3-3-3--3--3--3-3-3-3-0------|
E|--0-0-0--0--0--0-0--0-0------------------------------|



SONG ORDER

Intro
Verse
Chorus
Verse
Chorus with "Bridge" Ending
Piano Bridge
Solo
Chorus
Outro








| b  bend
| /  slide up
| \  slide down
| h  hammer-on
| p  pull-off
| ~  vibrato
| +  harmonic
| x  Mute note
===============================================================================
Suggest correction
Give kudos to tab author, rate the tab!
1 2 3 4 5
comments
print report bad tab
1 comment total.
0 reply
kelevhead 10 Dec 06, 2009 11:12 PM, edited on March 19 2016, 04:56 pm

.

guest
You may want to rate the tab now too:
select rating
Wanna post a correction for this tab? Suggest correction