Oops, an error
Loading. Please wait.

Lies Tab

version 2
version 2

Whole song

Interactive

3,695 views 6 this week
4 commentsread comments
1 2 3 4 5
accurate
x 3
add to favorites
launch autoscroll
font size
0
reset
how to read this tab
guitar tuner
Tab Pro tools
  • play this tab
  • loop segment
  • change instrument
  • show fretboard
  • metronome
×
Best way to learn
"Lies"
Autoscroll
slow
fast
+/-
esc
set tempo
stop
--------------------------------------------------------
                  Evanescence-Lies
--------------------------------------------------------

Tabbed By: Jack Negro
E-Mail: www.tom_the_negro@hotmail.com
Tuning: Drop D

This is my first guitar tab, but I think its pretty much right.

Guitar 1. Quarter Notes, Amy-Lee doing the voice intro.

e|----------------------------------------------------------------
b|-3-6-5-8-6-10-11-2-3-5-6-3-8-6-5-6------------------------------
g|----------------------------------------------------------------x6
d|----------------------------------------------------------------
a|----------------------------------------------------------------
D|----------------------------------------------------------------    

Note: on the 2nd, 4th and 6th time round guitar 1 plays this intro.
You start on the second note wich is 6th fret on the b string.


Guitar 2. half notes, Amy-Lee harmonizing the other part.

e|-------------------------------------------12--13--10--12--9----
b|-6--11--10--14--15--10--11--8--10--11--15-----------------------
g|----------------------------------------------------------------x4
d|----------------------------------------------------------------
a|----------------------------------------------------------------
D|----------------------------------------------------------------

Drums and Elec Guitar come in

If you have 3 guitars guitar 3 can play this, If you only have 2.
Guitar 1 can stop and play this. These notes are 8th notes.

e|----------------------------------------------------------------
b|----------------------------------------------------------------
g|----------------------------------------------------------------
d|----------------------------------------------------------------
a|---0-1-5-1-0-0--------------------------------------------------
D|-0----------5---------------------------------------------------

This guitar is played fairly fast. After you play it a bit your fingers will get used to it.
----------------------------------------------------------------------------
Rock Intro
Distortion Guitar

Guitar1+2
e|----------------------------------------------------------------
b|----------------------------------------------------------------
g|-0--------------------------------------------------------------
d|-0--------------------------------------------------------------
a|-0--------------------------------------------------------------
D|-0--------------------------------------------------------------

this rings for about 2 seconds.


Guitar 1:

e|----------------------------------------------------------------
b|----------------------------------------------------------------
g|----------------------------------------------------------------x1
d|-0-0-----------------------0-0----------------------------------
a|-0-0--88-777-555-777-88x3--0-0--88-777-555-333-11---------------
D|-0-0-----------------------0-0----------------------------------


Guitar 2:

e|----------------------------------------------------------------
b|-10--8--6--------8--6--5----------------------------------------
g|-----------6--7-------------------------------------------------
d|----------------------------------------------------------------
a|----------------------------------------------------------------
D|----------------------------------------------------------------

-----------------------------------------------------------------------------

Verse: 

Guitar 1:This is the part that goes "Blinded by my Shackles of fear".
Hit this chord once and let it ring.

e|---------------------------------------------------------------
b|---------------------------------------------------------------
g|--2------------------------------------------------------------
d|--0------------------------------------------------------------
a|--0------------------------------------------------------------
D|--0------------------------------------------------------------

Guitar 2: This is the piano part you play while the guy is singing

e|-------------8-------------------------------------------------
b|-10-8-8-8-6-8-11-10-8-6-8-8-8-6-5------------------------------
g|---------------------------------------------------------------
d|---------------------------------------------------------------
a|---------------------------------------------------------------
D|---------------------------------------------------------------

----------------------------------------------------------------------------
Pre-Chorus
Guitar 1: this is the part that goes "you would never be strong enough".

e|---------------------------------------------------------------
b|---------------------------------------------------------------
g|-2-------------------------------------------------------------
d|-0-------------------------------------------------------------
a|-0-------------------------------------------------------------
D|-0-------------------------------------------------------------

Guitar 2:( Im not 2 sure if this bit is right, i could barely hear it)
This is the lead that plays in the background of "You would never be strong enough".

e|---------------------------------------------------------------
b|--6-5---3h5-3h5-3h5-3------------------------------------------
g|-7-------------------------------------------------------------
d|---------------------------------------------------------------
a|---------------------------------------------------------------
D|---------------------------------------------------------------

-----------------------------------------------------------------------------
CHORUS.

The chorus is just the same as the intro, play it once.


Song line up after the chorus:

Verse
Pre-chorus
Chorus
-----------------------------------------------------------------------------
Guitar Solo:

Guitar 1:

e|--------------------------------------------------------------
b|--------------------------------------------------------------
g|--------------------------------------------------------------
d|--------------------------pm0-0-0-0-0-0-0-0-------------------x16
a|--0-1-5-1-0-0x7-------------0-0-0-0-0-0-0-0-------------------
D|-0---------5----------------0-0-0-0-0-0-0-0-------------------

Guitar 2: the same as guitar 1 except up higher

e|--------------------------------------------------------------
b|-------3------------------------------------------------------
g|---2-3---3-2-0-2x16-------------------------------------------
d|-0------------------------------------------------------------
a|--------------------------------------------------------------
D|--------------------------------------------------------------

-----------------------------------------------------------------------------
The Bridge

guitar 1:

e|--------------------------------------------------------------
b|--------------------------------------------------------------
g|------------------pm6x16--------------------------------------
d|-0-pm-000-1111x6----6-----------------------------------------
a|-0----000-1111------4-----------------------------------------
D|-0----000-1111------------------------------------------------

After this play the chorus once
Then play the vocal intro.

Well, Thats All. Enjoy!
comments
We did not receive enough feedback on this tab! Please rate:
print report bad tab
1 2 3 4 5
4 comments total. Showing first comments.
0 reply
br3ath3_n0_m0r3 wrote on May 24 2004, 12:00 am

awesome job, man, and this is a great song

0 reply
me_myself_n_I wrote on June 8 2004, 12:00 am

The tab is great, but the lyrics u give for the first line if the first verse are wrong....Its accualy.."Bound at every limb by my shckles of fear"... so u were 1/2 way there!!(i no this is a tab site not lyrics but i thought i'd point that out anyway!!)

0 reply
Spikez_ wrote on June 14 2004, 12:00 am

its gr8, but i think theres sumthing with the intro thats not quite rite.. the first part, but then after the high 10 & 11 notes, it doesnt sound rite

I want to post or [tab]
guest
You may want to rate the tab now too:
select rating
Please do not post tabs as comments. Select "correction" instead!