Oops, an error
Loading. Please wait.

Lithium Bass Tab

version 2
version 2

Whole song

  • Better accuracy, in the melodic and the rhythmic. ... Show more

Interactive

13 views 1 this week
no commentswrite comment
1 2 3 4 5
3 more votes to show rating
add to favorites
launch autoscroll
font size
0
reset
guitar tuner
Autoscroll
slow
fast
+/-
esc
set tempo
stop
Help us to improve Ultimate-Guitar.com Take our survey!
×
Author
Difficulty
Tuning
novice
D# G# C# F# A# D#
About this tab version
Better accuracy, in the melodic and the rhythmic. Better division of the music sessions. Was this info helpful? Yes No
Title: Lithium
Artist: Evanescence
Album: The Open Door
Bassist: Will Boyd
Composer: Amy Lee
Tabbed By: FLBatista


RIFF 1 (x2):

Gb|------------------|------------------|
Db|------------------|------------------|
Ab|------------------|------------------|
Eb|------------------|------------------|
Bb|-0----------------|------------0--0--|


VERSE 1 (Come to bed...):

Gb|---------------------|----------------------|---------------------|-------------------|
Db|---------------------|----------------------|---------------------|-------------------|
Ab|---------------------|----------------------|---------------------|-------------------|
Eb|---------------------|----------------------|-3------3--3------3--|-------3--3--------|
Bb|-0------0--0------0--|----0--0--0--------0--|---------------------|-------------------|

Gb|---------------------|-------------------|---------------------|-----------------|
Db|---------------------|-------------------|---------------------|-----------------|
Ab|---------------------|-------------------|---------------------|-----------------|
Eb|-3------3--3------0--|------0--5------5--|---------------------|--------5h7-7----|
Bb|---------------------|-------------------|-0------0--0------0--|------0----------|

Gb|---------------------|-------------------|---------------------|--------------------|
Db|---------------------|-------------------|---------------------|--------------------|
Ab|---------------------|-------------------|---------------------|--------------------|
Eb|---------------------|-------------------|-3------3--3------3--|-------3--3------3--|
Bb|-0------0--0------0--|-------0--0--------|---------------------|--------------------|

Gb|---------------------|-------------------|--------------------|--------------------|
Db|---------------------|-------------------|--------------------|--------5-----------|
Ab|---------------------|-------------------|--------------------|--------------------|
Eb|-3------3--3------0--|------0--5------5--|--------7-----------|-3-------------3----|
Bb|---------------------|-------------------|-0-------------0----|--------------------|

Gb|--------------------|-----------------------|
Db|--------------------|-----------------------|
Ab|--------------------|-----------7-----7-----|
Eb|--------7-----------|-0------0-----7-----7--|
Bb|-0-------------0----|-----------------------|


CHORUS 1 (Lithium, don't want...):

Gb|---------------------|---------------------|----------------------|-----------------------|
Db|---------------------|---------------------|----------------------|-----------------------|
Ab|---------------------|---------------------|----------------------|-----------------------|
Eb|------------------3h-|-5------5--5---------|----------------------|-----------------------|
Bb|-0------0--0---------|------------------3h-|-5------5--5----5--5--|---5----5--5--3--5--3--|

Gb|---------------------|---------------------|----------------------|-----------------------|
Db|---------------------|---------------------|----------------------|-----------------------|
Ab|---------------------|---------------------|----------------------|-----------------7\----|
Eb|------------------3h-|-5------5--5---------|----------------------|-----------------------|
Bb|-0------0--0---------|------------------3h-|-5------5--5----5--5--|---5----5--5--5--------|

Gb|---------------------|---------------------|----------------------|-----------------------|
Db|---------------------|---------------------|----------------------|-----------------------|
Ab|---------------------|---------------------|----------------------|-----------------7\----|
Eb|------------------3h-|-5------5--5---------|----------------------|-----------------------|
Bb|-0------0--0---------|------------------3h-|-5------5--5----5--5--|---5----5--5--5--------|

Gb|---------------------|---------------------|-----------------------|-----------------------|
Db|---------------------|---------------------|-----------------------|-----------------------|
Ab|---------------------|---------------------|-----------------------|-----------------------|
Eb|------------------3h-|-5------5--5---------|-----------------------|-----------------------|
Bb|-0------0--0---------|------------------3h-|-5------5--5--5--5--5--|-----------------------|


VERSE 2 (... lay me down this time...):

Gb|----------------------|---------------------|----------------------|-----------------------|
Db|----------------------|---------------------|----------------------|-----------------------|
Ab|----------------------|---------------------|----------------------|-----------------------|
Eb|-3----3--3--3------3--|-5------5--5------5--|----------------------|--------------------3--|
Bb|----------------------|---------------------|-0----0--0--0------0--|---0--0----0--0--0-----|

Gb|---------------------|---------------------|--------------------|-----------------------|
Db|---------------------|---------------------|--------------------|-----------------------|
Ab|---------------------|---------------------|--------------------|-----------------------|
Eb|-3------3--3------0--|-0------5--5---------|--------------------|--------------------3--|
Bb|---------------------|------------------0--|-0----0--0----0--0--|---0----0--0--0--0-----|

Gb|---------------------|---------------------|--------------------|-----------------------|
Db|---------------------|---------------------|--------------------|-----------------------|
Ab|---------------------|---------------------|--------------------|-----------------------|
Eb|-3------3--3------2--|-2------2--2---------|--------------------|--------------------3--|
Bb|---------------------|------------------0--|-0----0--0----0--0--|---0----0--0--0--0-----|

Gb|----------------------|--------------------|----------------------|------------------------|
Db|----------------------|--------------------|----------------------|------------------------|
Ab|----------------------|--------------------|----------------------|------------------------|
Eb|-3------3--3----3--0--|-0----0--0--5----5--|-------------------7--|---7--7--7--7--7--------|
Bb|----------------------|--------------------|-0------0--0----0-----|------------------0--0--|

Gb|----------------------|------------------------|
Db|----------------------|------------------------|
Ab|----------------------|------------------------|
Eb|-------------------7--|---7--7--7--7--7--7--7--|
Bb|-0------0--0----0-----|------------------------|


VERSE 3 (Darling, i forgive you...):

Gb|---------------------|------------------|---------------------|-------------------|
Db|---------------------|------------------|---------------------|-------------------|
Ab|---------------------|------------------|---------------------|-------------------|
Eb|---------------------|------------------|-3------3--3------3--|-------3--3--------|
Bb|-0------0--0------0--|------0--0--------|---------------------|-------------------|

Gb|---------------------|-------------------|---------------------|---------------------|
Db|---------------------|-------------------|---------------------|----------9----------|
Ab|---------------------|-------------------|---------------------|------/7-----7-------|
Eb|-3------3--3------0--|------0--5------5--|---------------------|----------------5----|
Bb|---------------------|-------------------|-0------0--0------0--|---------------------|

Gb|---------------------|-------------------|---------------------|-------------------|
Db|---------------------|-------------------|---------------------|-------------------|
Ab|---------------------|-------------------|---------------------|-------------------|
Eb|---------------------|-------------------|-3------3--3------3--|-------3--3--------|
Bb|-0------0--0------0--|-------0--0--------|---------------------|-------------------|

Gb|---------------------|-------------------|--------------------|--------------------|
Db|---------------------|-------------------|--------------------|--------5-----------|
Ab|---------------------|-------------------|--------------------|--------------------|
Eb|-3------3--3------0--|------0--5------5--|--------7-----------|-3-------------3----|
Bb|---------------------|-------------------|-0-------------0----|--------------------|

Gb|--------------------|-----------------------|
Db|--------------------|-----------------------|
Ab|--------------------|-----------7-----7-----|
Eb|--------7-----------|-0------0-----7-----7--|
Bb|-0-------------0----|-----------------------|


CHORUS 2 (Lithium, don't want...):

Gb|---------------------|---------------------|----------------------|-----------------------|
Db|---------------------|---------------------|----------------------|-----------------------|
Ab|---------------------|---------------------|----------------------|-----------------------|
Eb|------------------3h-|-5------5--5---------|----------------------|-----------------------|
Bb|-0------0--0---------|------------------3h-|-5------5--5----5--5--|---5----5--5--3--5--3--|

Gb|---------------------|---------------------|----------------------|-----------------------|
Db|---------------------|---------------------|----------------------|-----------------------|
Ab|---------------------|---------------------|----------------------|-----------------7\----|
Eb|------------------3h-|-5------5--5---------|----------------------|-----------------------|
Bb|-0------0--0---------|------------------3h-|-5------5--5----5--5--|---5----5--5--5--------|

Gb|---------------------|---------------------|----------------------|-----------------------|
Db|---------------------|---------------------|----------------------|-----------------------|
Ab|---------------------|---------------------|----------------------|-----------------------|
Eb|------------------3h-|-5------5--5---------|----------------------|-----------------------|
Bb|-0------0--0---------|------------------3h-|-5------5--5----5--5--|---5----5--5--3--5--3--|

Gb|---------------------|---------------------|------------------------|-----------------------|
Db|---------------------|---------------------|------------------------|-----------------------|
Ab|---------------------|---------------------|------------------------|-----------------------|
Eb|------------------3h-|-5------5--5---------|------------------------|-----------------------|
Bb|-0------0--0---------|------------------3h-|-5----5--5--5--5--5--5\-|-----------------------|


****************************
| / : Slide Up
| \ : Slide Down
| h : Hammer On
****************************
Suggest correction
Give kudos to tab author, rate the tab!
1 2 3 4 5
comments
print report bad tab
guest
You may want to rate the tab now too:
select rating
Wanna post a correction for this tab? Suggest correction