Oops, an error
Loading. Please wait.

Made Of Stone Tab

version 1
version 1

Whole song

Interactive

12,985 views 9 this week
2 commentsread comments
1 2 3 4 5
excellent!
x 8
add to favorites
launch autoscroll
font size
0
reset
how to read this tab
guitar tuner
Autoscroll
slow
fast
+/-
esc
set tempo
stop
Help us to improve Ultimate-Guitar.com Take our survey!
×
Author
Difficulty
Tuning
intermediate
A# F A# D# G C
Artist: Evanescence
Title: Made of Stone
Album: Evanescence

Tuning: (low to high) A# F A# D# G C

Tabbed by: FireReaverX


Intro / Chorus
C |----------------------------------------------------------------------|
G |----------------------------------------------------------------------|
D#|----------------------------------------------------------------------|
A#|-----------------------------------------------10---10---10-10---10---|
F |-5b6r5---5-0---------------------5b6r5---5-0---10---10---10-10---10---|
A#|---------------0---0---0-0-0-0-0---------------10---10---10-10---10---|

C |-------------------------------------------------------------------------|
G |-------------------------------------------------------------------------|
D#|-------------------------------------------------------------------------|
A#|-5-5-5-5-5-5-5-5-5-5-5-5-5-5-5-5-8-8-8-8-8-8-8-8-10-10-10-10-10-10-10-10-|
F |-5-5-5-5-5-5-5-5-5-5-5-5-5-5-5-5-8-8-8-8-8-8-8-8-10-10-10-10-10-10-10-10-|
A#|-5-5-5-5-5-5-5-5-5-5-5-5-5-5-5-5-8-8-8-8-8-8-8-8-10-10-10-10-10-10-10-10-|

C |----------------------------------------------------------------------|
G |----------------------------------------------------------------------|
D#|----------------------------------------------------------------------|
A#|-----------------------------------------------10---10---10-10---10---|
F |-5b6r5---5-0---------------------5b6r5---5-0---10---10---10-10---10---|
A#|---------------0---0---0-0-0-0-0---------------10---10---10-10---10---|

C |-----------------------------------------------------------------|
G |-----------------------------------------------------------------|
D#|-----------------------------------------------------------------|
A#|-5-5-5-5-5-5-5-5-5-5-5-5-5-5-5-5-3-3-3-3-3-3-3-3-2-2-2-2-2-2-2-2-|
F |-5-5-5-5-5-5-5-5-5-5-5-5-5-5-5-5-3-3-3-3-3-3-3-3-3-3-3-3-3-3-3-3-|
A#|-5-5-5-5-5-5-5-5-5-5-5-5-5-5-5-5-3-3-3-3-3-3-3-3-2-2-2-2-2-2-2-2-|


Verse
C |-----------------------------------------------------------------|
G |-----------------------------------------------------------------|
D#|-----------------------------------------------------------------|
A#|-----------------------------------------------------------------|
F |-------------------------------------------------6-------5-------|
A#|-0---0---0-----------------------0---0---0-----------------------|

C |-----------------------------------------------------------------|
G |-----------------------------------------------------------------|
D#|-----------------------------------------------------------------|
A#|-----------------------------------------------------------------|
F |-------------------------------------------------6-------8-------|
A#|-0---0---0-----------------------0---0---0-----------------------|

C |-----------------------------------------------------------------|
G |-----------------------------------------------------------------|
D#|-----------------------------------------------------------------|
A#|-----------------------------------------------------------------|
F |-------------------------------------------------6-------5-------|
A#|-0---0---0-----------------------0---0---0-----------------------|

C |-----------------------------------------------------------------|
G |-----------------------------------------------------------------|
D#|-----------------------------------------------------------------|
A#|-----------------------------------------------------------------|
F |-------------------------------------------------6-------8-------|
A#|-0---0---0-----------------------0-----0-0-----------------------|


Pre-chorus
C |-------------------------------------------------------------------------|
G |-------------------------------------------------------------------------|
D#|-------------------------------------------------------------------------|
A#|-5-h6-5-5-5-h6-5-5-5-h6-5-5-5-h6-5-5-5-h6-5-5-5-h6-5-5-5-h6-5-5-5-h6-5-5-|
F |-------------------------------------------------------------------------|
A#|-------------------------------------------------------------------------|


Chorus
Verse
Pre-chorus
Chorus


Bridge
C |---------------------------------|
G |---------------------------------|
D#|---------------------------------|
A#|---------------------------------|
F |---------------------------------|
A#|-0-0-8-8-7-7-5-5-7-7-3-3-5-5-2-2-|

C |----------------------------------------------------------------------------------|
G |----------------------------------------------------------------------------------|
D#|----------------------------------------------------------------------------------|
A#|-8-8-8-8-8-8-8-8-8-8-8-8-8-8-8-8-/12-12-12-12-12-12-12-12-10-10-10-10-10-10-10-10-|
F |-8-8-8-8-8-8-8-8-8-8-8-8-8-8-8-8-/12-12-12-12-12-12-12-12-10-10-10-10-10-10-10-10-|
A#|-8-8-8-8-8-8-8-8-8-8-8-8-8-8-8-8-/12-12-12-12-12-12-12-12-10-10-10-10-10-10-10-10-|

C |--------------------------------------------------------------|
G |--------------------------------------------------------------|
D#|--------------------------------------------------------------|
A#|-8-8-8-8-8-8-8-8-8-8-8-8-8-8-8-8--7-----7-----7-----7-----7---|
F |-8-8-8-8-8-8-8-8-8-8-8-8-8-8-8-8--7-----7-----7-----7-----7---|
A#|-8-8-8-8-8-8-8-8-8-8-8-8-8-8-8-8--7-7-7-7-7-7-7-7-7-7-7-7-7---|
                                       . .   . .   . .   . .


Guitar solo
C |--------------------------------------------------------------------------------------------|
G |-----------15-13--------------------------------------15-13---------------------------------|
D#|-7/---17---------14-12-10-14-----12-10----10----------------14-12-10-12b14-12b14r12p10-12---|
A#|---------------------------------------14----12---------------------------------------------|
F |--------------------------------------------------------------------------------------------|
A#|--------------------------------------------------------------------------------------------|

C |------------------------------------------------|
G |------------------------------------------------|
D#|-7/---15-----7/---17-----7/---19-----7/--21-----|
A#|------------------------------------------------|
F |------------------------------------------------|
A#|------------------------------------------------|
    .           .           .           .

C |-----------------17---------17-20-20b22r20p17-20-17-20b22-|
G |-18-17---20-18------20---20-------------------------------|
D#|----------------------------------------------------------|
A#|----------------------------------------------------------|
F |----------------------------------------------------------|
A#|----------------------------------------------------------|


Chorus


Ending
C |-----------------------------------------------------------------|
G |-----------------------------------------------------------------|
D#|-----------------------------------------------------------------|
A#|-----------------------------------------------------------------|
F |-5b6r5---5-0---------------------5b6r5---5-0---------------------|
A#|---------------0---0---0-0-0-0-0---------------0---0---0-0-0-0-0-|

C |-------------------------------------------------------------------------|
G |-------------------------------------------------------------------------|
D#|-------------------------------------------------------------------------|
A#|---------------------------------8-8-8-8-8-8-8-8-10-10-10-10-10-10-10-10-|
F |-5b6r5---5-0---------------------8-8-8-8-8-8-8-8-10-10-10-10-10-10-10-10-|
A#|---------------0---0---0-0-0-0-0-8-8-8-8-8-8-8-8-10-10-10-10-10-10-10-10-|

C |-----------------------------------------------------------------|
G |-----------------------------------------------------------------|
D#|-----------------------------------------------------------------|
A#|-5-5-5-5-5-5-5-5-5-5-5-5-5-5-5-5-3-3-3-3-3-3-3-3-2-2-2-2-2-2-2-2-|
F |-5-5-5-5-5-5-5-5-5-5-5-5-5-5-5-5-3-3-3-3-3-3-3-3-3-3-3-3-3-3-3-3-|
A#|-5-5-5-5-5-5-5-5-5-5-5-5-5-5-5-5-3-3-3-3-3-3-3-3-2-2-2-2-2-2-2-2-|

C |----------------|
G |----------------|
D#|----------------|
A#|----------------|
F |----------------|
A#|-0-----0-0------|


| /  slide up
| \  slide down
| h  hammer-on
| p  pull-off
| b  bend
| r  release bend
| *  natural harmonic
| .  palm mute
===============================================================================
Suggest correction
comments
print report bad tab
2 comments total.
+3 reply
silentskills 10 wrote on April 16 2013, 09:07 pm

holy balls down tuning...

0 reply
Voyevoda 32 wrote on August 9 2015, 07:16 pm

I used this tab to learn the song. If I had the patience, I would tab it out myself. Here's a video of it: https://youtu.be/sCLtap9zN9w

guest
You may want to rate the tab now too:
select rating
Please do not post tabs as comments. Select "correction" instead!