Oops, an error
Loading. Please wait.

My Heart Is Broken Tab

version 1
version 1

Whole song

Interactive

24,795 views 36 this week
1 commentread comment
1 2 3 4 5
excellent!
x 4
add to favorites
launch autoscroll
font size
0
reset
how to read this tab
guitar tuner
Tab Pro tools
  • play this tab
  • loop segment
  • change instrument
  • show fretboard
  • metronome
×
Best way to learn
"My Heart Is Broken"
Autoscroll
slow
fast
+/-
esc
set tempo
stop
Contributor
Difficulty
Tuning
novice
B F# B E G# C#
Artist: Evanescence
Title: My Heart Is Broken
Album: Evanescence

Tuning: (low to high) B F# B E G# C#

Tabbed by: FireReaverX


Intro
(piano arranged for guitar)
C#|-----------------------------------------------------------------|
G#|-----3-2---0---------0-2-------------3-2---0---------------------|
E |---------------3-------------------------------3-----------------|
B |-0---0---------------4-------4-4-----0-------2-------4-----------|
F#|---0-------0-2-----4-------4-------0-------2-------4-------------|
B |-0-------2-------4-------4-------0-------2-------4-----4---------|

(piano arranged for guitar)
C#|-----------------------------------------------------------------|
G#|-----3-2---0---------0-2-----------------------------------------|
E |---------------3-----------------------1-----2-1-----------------|
B |-0---0---------------4-------4-4-----0---------------2-----------|
F#|---0-------0-2-----4-------4-------0---------------2---2---------|
B |-0-------2-------4-------4-------0---------------2---------------|


Verse
C#|-----------------------------------------------------------------|
G#|-----------------------------------------------------------------|
E |-----------------------------------------------------------------|
B |-4-----4-----4-------------------0-----0-----0-0-----------------|
F#|-4-----4-----4-------------------0-----0-----0-0-----------------|
B |-4-4-4-4-4-4-4-------------------0-0-0-0-0-0-0-0-----------------|
      . .   . .                       . .   . .

C#|-------------------------------------------------------------------|
G#|-------------------------------------------------------------------|
E |-------------------------------------------------------------------|
B |-4-----4-----4-------------------9-----9-----9-----9---------------|
F#|-4-----4-----4-------------------9-----9-----9-----9---------------|
B |-4-4-4-4-4-4-4-------------------9-9-9-9-9-9-9-----9-9-9-9-11\-----|
      . .   . .                       . .   . .         . .

C#|-----------------------------------------------------------------|
G#|-----------------------------------------------------------------|
E |-----------------------------------------------------------------|
B |-4-----4-----4-------------------0-----0-----0-0-----------------|
F#|-4-----4-----4-------------------0-----0-----0-0-----------------|
B |-4-4-4-4-4-4-4-------------------0-0-0-0-0-0-0-0-----------------|
      . .   . .                       . .   . .

C#|-------------------------------------------------------------------|
G#|-------------------------------------------------------------------|
E |-------------------------------------------------------------------|
B |-4-----4-----4-------------------9-----9-----9-----9---------------|
F#|-4-----4-----4-------------------9-----9-----9-----9---------------|
B |-4-4-4-4-4-4-4-------------------9-9-9-9-9-9-9-----9-9-9-9-11-9\---|
      . .   . .                       . .   . .         . .


Pre-chorus
C#|-----------------------------------------------------------------|
G#|-----------------------------------------------------------------|
E |-----------------------------------------------------------------|
B |-0-0-0-0-0-0-0-0-9-9-9-9-9-9-9-9-4-4-4-4-4-4-4-4-4-4-4-4-4-4-4-4-|
F#|-0-0-0-0-0-0-0-0-9-9-9-9-9-9-9-9-4-4-4-4-4-4-4-4-4-4-4-4-4-4-4-4-|
B |-0-0-0-0-0-0-0-0-9-9-9-9-9-9-9-9-4-4-4-4-4-4-4-4-4-4-4-4-4-4-4-4-|

C#|-----------------------------------------------------------------|
G#|-----------------------------------------------------------------|
E |-----------------------------------------------------------------|
B |-0-0-0-0-0-0-0-0-2-2-2-2-2-2-2-2-4-4-4-4-4-4-4-4-4-4-4-4-4-4-4-4-|
F#|-0-0-0-0-0-0-0-0-2-2-2-2-2-2-2-2-4-4-4-4-4-4-4-4-4-4-4-4-4-4-4-4-|
B |-0-0-0-0-0-0-0-0-2-2-2-2-2-2-2-2-4-4-4-4-4-4-4-4-4-4-4-4-4-4-4-4-|

C#|-----------------------------------------------------------------|
G#|-----------------------------------------------------------------|
E |-----------------------------------------------------------------|
B |-0-0-0-0-0-0-0-0-9-9-9-9-9-9-9-9-4-4-4-4-4-4-4-4-4-4-4-4-4-4-4-4-|
F#|-0-0-0-0-0-0-0-0-9-9-9-9-9-9-9-9-4-4-4-4-4-4-4-4-4-4-4-4-4-4-4-4-|
B |-0-0-0-0-0-0-0-0-9-9-9-9-9-9-9-9-4-4-4-4-4-4-4-4-4-4-4-4-4-4-4-4-|

C#|-----------------------------------------------------------------|
G#|-----------------------------------------------------------------|
E |-----------------------------------------------------------------|
B |-0-----------0-----------0-0-----2-----------2-----------2-2-----|
F#|-0-----------0-----------0-0-----2-----------2-----------2-2-----|
B |-0-------0-0-0-------0-0-0-0-0-0-2-------2-2-2-------2-2-2-2-2-2-|
            . .         . .     . .         . .         . .     . .

Chorus
C#|-----------------------------------------------------------------|
G#|-----------------------------------------------------------------|
E |---------------------------------7-----7-----7-----7-----7-------|
B |-4-----4-----4-----4-4-4-4-------7-----7-----7-----7-----7-------|
F#|-4-----4-----4-------------7-4---5-----5-5-5-5-----5-5-5-5---5-5-|
B |-4-----4-4-4-4---------------------------------------------------|
            . .                             . .         . .     . .

C#|-----------------------------------------------------------------|
G#|-----------------------------------------------------------------|
E |-----------------------------------------------------------------|
B |-7-----7-----7-----7-----7-------6-----6-----6-----6-----6-------|
F#|-7-----7-----7-----7-----7-------7-----7-----7-----7-----7-------|
B |-7-----7-7-7-7-----7-7-7-7---7-7-6-----6-6-6-6-----6-6-6-6---6-6-|
            . .         . .     . .         . .         . .     . .


Transition
C#|-----------------------------------------------------------------|
G#|-----------------------------------------------------------------|
E |-----------------------------------------------------------------|
B |-4---------------------------------------------------------------|
F#|-4---------------------------------------------------------------|
B |-4---------------------------------------------------------------|


Verse
Pre-chorus
Chorus


Bridge
C#|---------------------------------------------------------|
G#|---------------------------------------------------------|
E |---------------------------------------------------------|
B |-4\---\0---4\---\0---4-4-----4\---\0---4\---\0---4-4-----|
F#|-4\---\0---4\---\0---4-4-x-x-4\---\0---4\---\0---4-4-x-x-|
B |-4\---\0---4\---\0---4-4-x-x-4\---\0---4\---\0---4-4-x-x-|

C#|---------------------------------------------------------|
G#|---------------------------------------------------------|
E |---------------------------------------------------------|
B |-4\---\0---4\---\0---4-4-----4\---\0---4\---\0---4-4-----|
F#|-4\---\0---4\---\0---4-4-x-x-4\---\0---4\---\0---4-4-x-x-|
B |-4\---\0---4\---\0---4-4-x-x-4\---\0---4\---\0---4-4-x-x-|

C#|-----------------------------------------------------------------|
G#|-----------------------------------------------------------------|
E |-6-6-6-6-6-6-6-6-6-6-6-6-6-6-6-6-7-7-7-7-7-7-7-7-7-7-7-7-7-7-7-7-|
B |-6-6-6-6-6-6-6-6-6-6-6-6-6-6-6-6-7-7-7-7-7-7-7-7-7-7-7-7-7-7-7-7-|
F#|-4-4-4-4-4-4-4-4-4-4-4-4-4-4-4-4-5-5-5-5-5-5-5-5-5-5-5-5-5-5-5-5-|
B |-----------------------------------------------------------------|

C#|-----------------------------------------------------------------|
G#|-----------------------------------------------------------------|
E |-------------------------6-------7-7-7-7-7-7-7-7-7-7-7-7-7-7-7-7-|
B |-4-4-4-4-4-4-4-4-4-4-4-4-6-------7-7-7-7-7-7-7-7-7-7-7-7-7-7-7-7-|
F#|-4-4-4-4-4-4-4-4-4-4-4-4-4-------5-5-5-5-5-5-5-5-5-5-5-5-5-5-5-5-|
B |-4-4-4-4-4-4-4-4-4-4-4-4---------0-0-0-0-0-0-0-0-0-0-0-0-0-0-0-0-|

C#|---------------------------------------------------------|
G#|---------------------------------------------------------|
E |---------------------------------------------------------|
B |-4\---\0---4\---\0---4-4-----4\---\0---4\---\0---4-4-----|
F#|-4\---\0---4\---\0---4-4-x-x-4\---\0---4\---\0---4-4-x-x-|
B |-4\---\0---4\---\0---4-4-x-x-4\---\0---4\---\0---4-4-x-x-|

C#|--------------------------------------------------------------|
G#|--------------------------------------------------------------|
E |-----------------------------7---7-7-7-7-7-/9-9-9-9-9-9-9-9-9-|
B |-4\---\0---4\---\0---4-4--------------------------------------|
F#|-4\---\0---4\---\0---4-4-x-x-5---5-5-5-5-5-/7-7-7-7-7-7-7-7-7-|
B |-4\---\0---4\---\0---4-4-x-x----------------------------------|


Chorus


Ending
C#|---------------------------------------------------------|
G#|---------------------------------------------------------|
E |---------------------------------------------------------|
B |-4\---\0---4\---\0---4-4-----4\---\0---4\---\0---4-4-----|
F#|-4\---\0---4\---\0---4-4-x-x-4\---\0---4\---\0---4-4-----|
B |-4\---\0---4\---\0---4-4-x-x-4\---\0---4\---\0---4-4-----|


| /  slide up
| \  slide down
| h  hammer-on
| p  pull-off
| b  bend
| r  release bend
| *  natural harmonic
| x  mute string
| .  palm mute
===============================================================================
comments
print report bad tab
1 comment total.
0 reply
Dabeastvader wrote on June 29 2012, 04:52 pm

Awesome tab!!!

I want to post or [tab]
guest
You may want to rate the tab now too:
select rating
Please do not post tabs as comments. Select "correction" instead!