Oops, an error
Loading. Please wait.

My Immortal Chords

version 2
version 2

Whole song

Interactive

693,682 views 1,116 this week
37 commentsread comments
1 2 3 4 5
excellent!
x 419
add to favorites
launch autoscroll
font size
0
reset
transpose
0
reset
simplify chords
display chords
guitar tuner
Autoscroll
slow
fast
+/-
esc
set tempo
stop
Help us to improve Ultimate-Guitar.com Take our survey!
×
Contributor
Difficulty
Capo
toeffifee 833
intermediate
2nd fret
I think that all other versions have some mistakes either in the chords of the bridge or 
the Intro-Tabs. So here's what I think is authentic.

My Immortal  (Capo 2)


[Intro]

   G                  Bm                  G                 Bm
e||-----3---7---3----|----------7-------|-----3---5---3----|---------7--------||
B||---3---3---3---3--|-----7-—----------|---3---3---3---3--|-----7-—----------||
G||-4----------------|---7---7----------|-4----------------|---7---7----------||
D||------------------|-9----------------|------------------|-9----------------||
A||------------------|------------------|------------------|------------------||
E||-3----------------|-7----------------|-3----------------|-7----------------||


[Alternative Intro]

   G                  Bm                  G                 Bm
e||------------------|------------------|------------------|------------------||
B||------------------|-------—--0-------|------------------|---------0--------||
G||---------4--------|------------------|------------------|------------------||
D||-----5-------5----|-----4------------|-----5---7---5----|-----4------------||
A||---5---5---5---5--|---5---5----------|---5---5---5---5--|---5---5----------||
E||-3----------------|-7----------------|-3----------------|-7----------------||


[Verse]

G                         Bm
   I'm so tired of being here
G                         Bm
   suppressed by all of my childish fears
G                           Bm
   and if you have to leave - I wish that you could just leave
G                                         Bm
   'cause your presence still lingers here - and it won't leave me alone


[Pre-Chorus]

Em     Bm                           Em
      These wounds won't seem to heal
       Bm                      Em
      This pain is just too real
       Bm                         D               (Em)
      There's just too much that time cannot erase


[Chorus]

Em           C         D        Bm               (Em)
   When you cried I'd wipe away all of your tears
Em               C        D         Bm              (Em)
   When you'd scream I'd fight away all of your fears
Em      C         D           Bm                (Em)
    I  held your hand through all of these years
Em            C   D
   But you still have     all of me


[Instrumental]

   G                  Bm                  G                 Bm
e||-----3---7---3----|----------7-------|-----3---5---3----|---------7--------||
B||---3---3---3---3--|-----7-—----------|---3---3---3---3--|-----7-—----------||
G||-4----------------|---7---7----------|-4----------------|---7---7----------||
D||------------------|-9----------------|------------------|-9----------------||
A||------------------|------------------|------------------|------------------||
E||-3----------------|-7----------------|-3----------------|-7----------------||


[Verse]

G                           Bm                              
   You used to captivate me   by your resonating light
G                           Bm
   but now I'm bound by the life you left behind
G                      Bm
   Your face it haunts    my once pleasant dreams
G                            Bm
   your voice it chased away   all the sanity in me


[Pre-Chorus]

Em     Bm                           Em
      These wounds won't seem to heal
       Bm                      Em
      This pain is just too real
       Bm                         D               (Em)
      There's just too much that time cannot erase


[Chorus]

Em           C         D        Bm               (Em)
   When you cried I'd wipe away all of your tears
Em               C        D         Bm              (Em)
   When you'd scream I'd fight away all of your fears
Em      C         D           Bm                (Em)
    I  held your hand through all of these years
Em            C   D               C
   But you still have     all of me


[Bridge]

C              Em             Bm               C
I've tried so hard to tell myself that you're gone
      Am7               Bm      C           D          Em
but though you're still with me I've been alone all along


[Instrumental]

| Em   C   D  Bm |  
| Em   C   D  Bm |  


[Chorus]

Em           C         D        Bm               (Em)
   When you cried I'd wipe away all of your tears
Em               C        D         Bm              (Em)
   When you'd scream I'd fight away all of your fears
Em      C         D           Bm                (Em)
    I  held your hand through all of these years
Em            C   D               (G)
   But you still have     all of me


[Outro]

   G                  Bm                  G                 Bm
e||-----3---7---3----|----------7-------|-----3---5---3----|---------7--------||
B||---3---3---3---3--|-----7-—----------|---3---3---3---3--|-----7-—----------||
G||-4----------------|---7---7----------|-4----------------|---7---7----------||
D||------------------|-9----------------|------------------|-9----------------||
A||------------------|------------------|------------------|------------------||
E||-3----------------|-7----------------|-3----------------|-7----------------||
Suggest correction new What's this?
You can suggest a correction to this tab. Community and Mods will review your correction and vote to approve or reject it.
comments
print report bad tab
37 comments total. Showing first comments.
+16 reply
Blue-toxic 1,462 wrote on February 21 2008, 04:56 pm

its all perfect except i guess the intro should be like this :

G Bm G Bm
e||-----3---7---3---|---------7-------|-----3---5---3---|---------7-----|
B||---3---3---3---3-|-----7-—-----7---|---3---3---3---3-|-----7-—-------|
G||-----------------|---7---7---7---7-|-----------------|---7---7-------|
D||-----------------|-----------------|-----------------|---------------|
A||-----------------|-----------------|-----------------|---------------|
E||-3---------------|-7---------------|-3---------------|-7-------------|
^^^^^^^^^^^^^^^^^^^^^^^^^^^^^^^

0 reply
chelz 330 wrote on April 10 2008, 01:07 pm

brill.
thanks ^^
xx

+4 reply
guiitarhead 32 wrote on November 1 2008, 03:35 pm

nice tab dude ...i was searching for chords of this song ..i stopped after i finding this

guest
You may want to rate the tab now too:
select rating
Please do not post tabs as comments. Select "correction" instead!