Oops, an error
Loading. Please wait.

My Immortal Tab

version 2
version 2

Whole song

Interactive

220,441 views 330 this week
5 commentsread comments
1 2 3 4 5
x 19
add to favorites
launch autoscroll
font size
0
reset
how to read this tab
guitar tuner
Autoscroll
slow
fast
+/-
esc
set tempo
stop
Help us to improve Ultimate-Guitar.com Take our survey!
×
Author
Artist:Evanescence
Title:My Immortal
Tunning:Standard(EADGBE)
Tabbed by:Shane Smith-Niratic   shane_404@hotmail.com

This is the band version of My Immortal.This is my first tab,please rate it.

[Chords]

e|0---0---4---2-|
B|3---0---5---2-|
G|3---1---6---2-|
D|3---2---6---4-|
A|0---2---4---4-|
E|0---0---4---2-|
  A   E  C#m F#m


[Intro]

e|----------0-------------------4-----|
B|------3-------3-----------5-----5---|
G|---3---3----3---3-----------6--6-6--|
D|-3-----------------------6----------| x2
A|-----------------------4------------|
E|------------------------------------|


A                     C#m
I'm so tired of being here
A                    C#m
Suppressed by all my childish fears
A
and if you have to leave
C#m
I wish that you would just leave
A
Your presence still lingers here
C#m                         F#m
and it won't leave me alone


[Refrain]

C#m                         F#m
These wounds won't seem to heal
C#m                    F#m
This pain is just too real
C#m                       E              F#m
There's just too much that time cannot erase


[Chorus]

F#m      D         E         C#m         F#m
When you cried I'd wipe away all of your tears
F#m        D         E          C#m         F#m
When you'd scream I?d fight away all of your fears
F#m   D         E            C#m          F#m
and I held your hand through all of these years
        D      E                   A
But you still have    all of me


[Instrumental]

e|----------0-------------------4-----|
B|------3-------3-----------5-----5---|
G|---3---3----3---3-----------6--6-6--|
D|-3-----------------------6----------| x2
A|-----------------------4------------|
E|------------------------------------|


[Verse]

A
You used to captivate me
C#m                   A
by your resonating light
A                    C#m                  A
now I?m bound by the life you left behind
A
Your face it haunts
C#m                    A
my once pleasant dreams
A               C#m
your voice it chased away
A                 F#m
all the sanity in me


[Refrain]

C#m                         F#m
These wounds won't seem to heal
C#m                    F#m
This pain is just too real
C#m                       E              F#m
There's just too much that time cannot erase


[Chorus]

F#m      D         E         C#m         F#m
When you cried I'd wipe away all of your tears
F#m        D         E          C#m         F#m
When you'd scream I?d fight away all of your fears
F#m   D         E            C#m          F#m
and I held your hand through all of these years
        D      E                   A
But you still have    all of me


[Bridge]

D              F#m           E                F#m
I've tried so hard to tell myself that you?re gone,
    D                    C#m
but though you're still with me,
D           E
I've been alone all


[Solo] (Distortion)

e|---------------------------------------------------------------------------|
B|---------------------------------------------------------------------------|
G|-----------------------------------------6p4-2p1---------------------------|
D|---4h6-6h7-7b-7-6h7-----4h7-6-7p6-----------------7-6-4h6-4----------------|
A|--------------------5b-------------7p4-------------------------------------|
E|---------------------------------------------------------------------------|
   along,

e|---------------------------------------------------------------------------|
B|---------------------------------------------------------------------------|
G|---------4b---6h7p6b----6h7p6-4h6p4----------------------------------------|
D|---4h6h7----------------------------7p6h7b---------------------------------|
A|---------------------------------------------------------------------------|
E|---------------------------------------------------------------------------|


[Chorus] (Distortion)

e|--222--------------------------------222-----------------------------------|
B|--222--------------------------------222-----------------------------------|
G|--222--------777-----999-----666-----222-----777-----999-----666-----------|
D|--444--------777-----999-----666-----444-----777-----999-----666-----------|
A|--444--------555-----777-----444-----444-----555-----777-----444-----------|
E|--222--------------------------------222-----------------------------------|
   When you cried...                   And i held....

e|--222-------------------------|
B|--222-------------------------|
G|--222-----777-----999---------|
D|--444-----777-----999---------|
A|--444-----555-----777---------|
E|--222-------------------------|
   But you still have...


[Outro]

e|--------0-------------------4------------------0----------------4----------|
B|-----3-------3-----------5------5-----------3-------3--------5-----7--5----|
G|--3---3---3---3-----------6---6---6-------3--3----3---3--------6------6----|
D|-3----------------------6----------------3------------------6---------7----|
A|----------------------4-----------------------------------4----------------|
E|---------------------------------------------------------------------------|
 All of me....


************************************

| h  Hammer-on
| p  Pull-off
| b  Bend

************************************
Suggest correction
comments
print report bad tab
5 comments total. Showing first comments.
0 reply
marianoarnaiz 1,521 Mar 08, 2005 12:00 AM

first a is 002220 not 003330, then the solo is played higher and you are missinf there a couple of PH but the chord progretion is ok

+1 reply
niratic 70 Mar 09, 2005 12:00 AM

***.i didnt see that mistake there.lol

0 reply
niratic 70 Mar 10, 2005 12:00 AM

i screwed up my first tab, just great

guest
You may want to rate the tab now too:
select rating
Wanna post a correction for this tab? Suggest correction