Oops, an error
Loading. Please wait.

New Way To Bleed Tab

2,007 views 1 this week
no commentswrite comment
1 2 3 4 5
2 more votes to show rating
add to favorites
launch autoscroll
font size
0
reset
how to read this tab
guitar tuner
Autoscroll
slow
fast
+/-
esc
set tempo
stop
Help us to improve Ultimate-Guitar.com Take our survey!
×
Author
Difficulty
Tuning
novice
C# G# C# F# A# D#
Artist: Evanescence
Title: New Way To Bleed
Album: Evanescence

Tuning: (low to high) Db Ab Db Gb Bb Eb

Tabbed by: FireReaverX


Intro
Eb|-----------------------------------------------------------------|
Bb|-3-3-3-3-----3-3-3-3-----3-3-----3-3-3-3-----3-3-3-3-----3-3-----|
Gb|-2-2-2-2-----2-2-2-2-----2-2-----2-2-2-2-----2-2-2-2-----2-2-----|
Db|-0-0-0-0-----0-0-0-0-----0-0-----0-0-0-0-----0-0-0-0-----0-0-----|
Ab|-0-0-0-0-0-0-0-0-0-0-0-0-0-0-0-0-0-0-0-0-0-0-0-0-0-0-0-0-0-0-0-0-|
Db|-0-0-0-0-0-0-0-0-0-0-0-0-0-0-0-0-0-0-0-0-0-0-0-0-0-0-0-0-0-0-0-0-|
            . .         . .     . .         . .         . .     . .


Verse
Eb|-----------------------------------------------------------------|
Bb|-3---------------------------------------------------------------|
Gb|-2---------------------------------------------------------------|
Db|-0---------------------------------------------------------------|
Ab|-0---------------------------------------------------------------|
Db|-0---------------------------------------------------------------|

Eb|-----------------------------------------------------------------|
Bb|-----------------------------------------------------------------|
Gb|-----------------------------------------------------------------|
Db|-----------------------------------------------------------------|
Ab|-----------------------------------------------------------------|
Db|-0-0-0-0---0-0-0-0-0---0-0-0---0-0-0-0-0---0-0-0-0-0---0-0-0---0-|
    . . . .   . . . . .   . . .   . . . . .   . . . . .   . . .   .

Eb|-----------------------------------------------------------------|
Bb|-----------------------------------------------------------------|
Gb|-----------------------------------------------------------------|
Db|-----------------------------------------------------------------|
Ab|-----------------------------------------------------------------|
Db|-0-0-0-0---0-0-0-0-0---0-0-0-0-0-3-3-3-3-3-3-3-3-1-1-1-1-1-1-1-1-|
    . . . .   . . . . .   . . . . . . . . . . . . . . . . . . . . .


Chorus
Eb|-----------------------------------------------------------------|
Bb|-----------------------------------------------------------------|
Gb|-----------------------------------------------------------------|
Db|-5-------5-------5-------5-------8-------8-------8-------8-------|
Ab|-5-5-5-5-5-5-5-5-5-5-5-5-5-5-5-5-8-8-8-8-8-8-8-8-8-8-8-8-8-8-8-8-|
Db|-5-5-5-5-5-5-5-5-5-5-5-5-5-5-5-5-8-8-8-8-8-8-8-8-8-8-8-8-8-8-8-8-|

Eb|-----------------------------------------------------------------|
Bb|-3-3-3-3-----3-3-3-3-----3-3-------------------------------------|
Gb|-2-2-2-2-----2-2-2-2-----2-2-------------------------------------|
Db|-0-0-0-0-----0-0-0-0-----0-0-----3-------3-------3-------3-------|
Ab|-0-0-0-0-0-0-0-0-0-0-0-0-0-0-0-0-3-3-3-3-3-3-3-3-3-3-3-3-3-3-3-3-|
Db|-0-0-0-0-0-0-0-0-0-0-0-0-0-0-0-0-3-3-3-3-3-3-3-3-3-3-3-3-3-3-3-3-|
            . .         . .     . .

Eb|-----------------------------------------------------------------|
Bb|-3-3-3-3-----3-3-3-3-----3-3-------------------------------------|
Gb|-2-2-2-2-----2-2-2-2-----2-2-------------------------------------|
Db|-0-0-0-0-----0-0-0-0-----0-0-----5-------5-------5-------5-------|
Ab|-0-0-0-0-0-0-0-0-0-0-0-0-0-0-0-0-5-5-5-5-5-5-5-5-5-5-5-5-5-5-5-5-|
Db|-0-0-0-0-0-0-0-0-0-0-0-0-0-0-0-0-5-5-5-5-5-5-5-5-5-5-5-5-5-5-5-5-|
            . .         . .     . .


Intro riff


Verse
Eb|-----------------------------------------------------------------|
Bb|-3---------------------------------------------------------------|
Gb|-2---------------------------------------------------------------|
Db|-0---------------------------------------------------------------|
Ab|-0---------------------------------------------------------------|
Db|-0---------------------------------------------------------------|

Eb|-----------------------------------------------------------------|
Bb|-----------------------------------------------------------------|
Gb|-----------------------------------------------------------------|
Db|-----------------------------------------------------------------|
Ab|-----------------------------------------------------------------|
Db|-0-0-0-0---0-0-0-0-0---0-0-0---0-0-0-0-0---0-0-0-0-0---0-0-0---0-|
    . . . .   . . . . .   . . .   . . . . .   . . . . .   . . .   .

Eb|-----------------------------------------------------------------|
Bb|-----------------------------------------------------------------|
Gb|-----------------------------------------------------------------|
Db|-----------------------------------------------------------------|
Ab|---------------------------------1-1-1-1---1-1-1-1-1---1-1-1---1-|
Db|-0-0-0-0---0-0-0-0-0---0-0-0---0---------------------------------|
    . . . .   . . . . .   . . .   . . . . .   . . . . .   . . .   .

Eb|-----------------------------------------------------------------|
Bb|-----------------------------------------------------------------|
Gb|-----------------------------------------------------------------|
Db|-----------------------------------------------------------------|
Ab|-----------------------------------------------------------------|
Db|-0-0-0-0---0-0-0-0-0---0-0-0-0-0-3-3-3-3-3-3-3-3-1-1-1-1-1-1-1-1-|
    . . . .   . . . . .   . . . . . . . . . . . . . . . . . . . . .


Chorus


Bridge
Eb|---------------------------------------------------------------------|
Bb|-------3-----------3-------3-----------3-----------3-----------------|
Gb|-------2-----------2-------2-----------2-----------2-----------------|
Db|-------0-----------0-------0-----------0-----------0-----------------|
Ab|-------0-----------0-------0-----------0-----------0-----------------|
Db|-0-0-0-0-----0-0-0-0-----0-0-----0-0-0-0-----0-0-0-0-----10-10-10-10-|
    . . .       . . .       .       . . .       . . .        .  .  .  .

Eb|-----------------------------------------------------------------|
Bb|-----------------------------------------------------------------|
Gb|-----------------------------------------------------------------|
Db|-------8-----------8-------------------7-----------7-------------|
Ab|-------8-----------8-------------------7-----------7-------------|
Db|-8-8-8-8---8-8-8-8-8---8-8-8-8-8-7-7-7-7---7-7-7-7-7---7-7-7-7-7-|
    . . .     . . . .     . . . . . . . .     . . . .     . . . . .

Eb|---------------------------------------------------------------------------------|
Bb|---------------------------------------------------------------------------------|
Gb|---------------------------------------------------------------------------------|
Db|-------8-----------8-------------10-------10-------10-------10-------10-10-10-10-|
Ab|-------8-----------8-------------10-10-10-10-10-10-10-10-10-10-10-10-10-10-10-10-|
Db|-8-8-8-8---8-8-8-8-8---8-8-8-8-8-10-10-10-10-10-10-10-10-10-10-10-10-10-10-10-10-|
    . . .     . . . .     . . . . .


Chorus
Intro riff


| /  slide up
| \  slide down
| h  hammer-on
| p  pull-off
| b  bend
| r  release bend
| v  vibrato
| *  natural harmonic
| x  mute string
| .  palm mute
===============================================================================
Suggest correction
Give kudos to tab author, rate the tab!
1 2 3 4 5
comments
print report bad tab
guest
You may want to rate the tab now too:
select rating
Wanna post a correction for this tab? Suggest correction