Oops, an error
Loading. Please wait.

Oceans Tab

4,170 views 3 this week
no commentswrite comment
1 2 3 4 5
accurate
x 5
add to favorites
launch autoscroll
font size
0
reset
how to read this tab
guitar tuner
Tab Pro tools
  • play this tab
  • loop segment
  • change instrument
  • show fretboard
  • metronome
×
Best way to learn
"Oceans"
Autoscroll
slow
fast
+/-
esc
set tempo
stop
Contributor
Difficulty
Tuning
novice
B F# B E G# C#
Artist: Evanescence
Title: Oceans
Album: Evanescence

Tuning: (low to high) B F# B E G# C#

Tabbed by: FireReaverX


Intro
(synth arranged for guitar)
C#|---------1---3-----------1-------|
G#|-----------------------------4---|
E |-7---------------7---------------|
B |---------------------------------|
F#|---------------------------------|
B |-5-------1---3---5-------1---3---|


Verse
(synth arranged for guitar)
C#|---------1---------------1---------------1---3-----------1--------|
G#|-----------------------------4--------------------------------4---|
E |-7-----------5---7---------------7---------------7----------------|
B |------------------------------------------------------------------|
F#|------------------------------------------------------------------|
B |-5-------1---3---5-------1---3---5-------1---3---5-------1----3---|

(synth arranged for guitar)
C#|---------1---------------1---------------1---3-----------1----3---|
G#|-0---------------0-----------4---0---------------0----------------|
E |-7-----------5---7---------------7---------------7-------3----5---|
B |------------------------------------------------------------------|
F#|------------------------------------------------------------------|
B |-5-------1---3---5-------1---3---5-------1---3---5-------1----3---|


Pre-chorus
C#|-------------------------------------------------------------------------------------------|
G#|-------------------------------------------------------------------------------------------|
E |-12---12-12-12---12-12-12/14-14-14-14---14-14-14/15-15-15-15---15-15-11---11-11-11---11-11-|
B |-------------------------------------------------------------------------------------------|
F#|-10---10-10-10---10-10-10/12-12-12-12---12-12-12/13-13-13-13---13-13--9----9--9--9----9--9-|
B |-------------------------------------------------------------------------------------------|


Chorus
C#|----------------------------------------------------------------------------------|
G#|----------------------------------------------------------------------------------|
E |----------------------------------------------------------------------------------|
B |-5------5------5---1------1------1---5------5------5---10--------10-----1-----0---|
F#|-5------5------5---1------1------1---5------5------5---10--------10-----1-----0---|
B |-5---55-5---55-5---1---11-1---11-1---5---55-5---55-5---10---1010-10---1-1---0-0---|
        ..     ..         ..     ..         ..     ..           . .      .     .

C#|---------------------------------------------------------|
G#|---------------------------------------------------------|
E |---------------------------------------------------------|
B |-5------5------5---1------1------1---0------0------0-----|
F#|-5------5------5---1------1------1---0------0------0-----|
B |-5---55-5---55-5---1---11-1---11-1---0---00-0---00-0-----|
        ..     ..         ..     ..         ..     ..

C#|---------------------------------|
G#|---------------------------------|
E |---------------------------------|
B |-7-7-7-7-7-7-7-7-7-7-7-7-7-7-7-7-|
F#|-5-5-5-5-5-5-5-5-5-5-5-5-5-5-5-5-|
B |-0-0-0-0-0-0-0-0-0-0-0-0-0-0-0-0-|


Interlude
C#|-------------------------------------------------------------------------------|
G#|-------------------------------------------------------------------------------|
E |-------------------------------------------------------------------------------|
B |-------------------------------------------------------------------------------|
F#|-/10-10-10---12---12-12-13-13---13---------/8-8-8-8-8-8-10---/8-8-8-8-8-8-10---|
B |-------------------------------------------------------------------------------|

C#|----------------------------------------------------------------------------------|
G#|----------------------------------------------------------------------------------|
E |----------------------------------------------------------------------------------|
B |----------------------------------------------------------------------------------|
F#|-/10-10-10---12---12-12-13-13---13---------/15-15-15-15-15---15-15-13-13---13-----|
B |----------------------------------------------------------------------------------|


Verse
(synth arranged for guitar)
C#|---------1---------------1---------------1---3-----------1----3---|
G#|-----------------------------4-------------------0----------------|
E |-7-----------5---7---------------7---------------7-------3----5---|
B |------------------------------------------------------------------|
F#|------------------------------------------------------------------|
B |-5-------1---3---5-------1---3---5-------1---3---5-------1----3---|


Pre-chorus
Chorus


Bridge
C#|-------------------------------------------------------------------|
G#|-------------------------------------------------------------------|
E |-8-7-0-8-7-0-8-7-0-8-7-0-8-7-----8-7-0-8-7-0-8-7-0-8-7-0-8-/10-----|
B |-------------------------------------------------------------------|
F#|---------------------------------------------------------6-/-8-----|
B |-------------------------------------------------------------------|

C#|-----------------------------------------------------------------|
G#|-----------------------------------------------------------------|
E |-8-7-0-8-7-0-8-7-0-8-7-0-8-7-----8-8-8-8-8-8-7-7-7-7-7-7-7-7-7-7-|
B |-----------------------------------------------------------------|
F#|---------------------------------6-6-6-6-6-6-5-5-5-5-5-5-5-5-5-5-|
B |-----------------------------------------------------------------|

C#|-------------------------------------------------------------------|
G#|-------------------------------------------------------------------|
E |-8-7-0-8-7-0-8-7-0-8-7-0-8-7-----8-7-0-8-7-0-8-7-0-8-7-0-8-/10-----|
B |-------------------------------------------------------------------|
F#|---------------------------------------------------------6-/-8-----|
B |-------------------------------------------------------------------|

C#|---------------------------------------------------------------------------------|
G#|---------------------------------------------------------------------------------|
E |-8-7-0-8-7-0-8-7-0-8-7-0-8-7-----12-12-12-12-12-12-12-12-12-12-12-12-12-12-12-12-|
B |---------------------------------------------------------------------------------|
F#|---------------------------------10-10-10-10-10-10-10-10-10-10-10-10-10-10-10-10-|
B |---------------------------------------------------------------------------------|

C#|------------------------------------------------------------------------|
G#|------------------------------------------------------------------------|
E |-12-----14-----15---14-----15-----17---15-----17-----19---19\-----------|
B |------------------------------------------------------------------------|
F#|-10-----12-----13---12-----13-----15---13-----15-----17---17\-----------|
B |------------------------------------------------------------------------|


Chorus


| /  slide up
| \  slide down
| h  hammer-on
| p  pull-off
| b  bend
| r  release bend
| *  natural harmonic
| x  mute string
| .  palm mute
===============================================================================
comments
print report bad tab
I want to post or [tab]
guest
You may want to rate the tab now too:
select rating
Please do not post tabs as comments. Select "correction" instead!