Oops, an error
Loading. Please wait.

October Tab

version 5
version 5

Whole song

Interactive

65,855 views 57 this week
15 commentsread comments
1 2 3 4 5
x 30
add to favorites
launch autoscroll
font size
0
reset
how to read this tab
guitar tuner
×
Best way to learn
"October"
Autoscroll
slow
fast
+/-
esc
set tempo
stop
Author
Tuning
  follow
D# G# C# F# A# D#
October by Evanescence
Tabbed by Aries_Mata05, Chile.
DGCFAD

[Guitarra 1]

D|-------------------------------------------------------------------------|
A|-------------------------------------------------------------------------|
F|-----2-----0-----2-----0----------------2-----0-----2-----0-----2/4------|
C|---0-----0-----0-----0-------0--------0-----0-----0-----0-----0----------|
G|---------------------------0---0-----------------------------------------|
D|-3-----3-----3-----3-----3----------2-----2-----2-----2-----2------------|

D|----------------------------------------------------------------------------|
A|----------------------------------------------------------------------------|
F|------0-----2-----4-----2-----0--------0-----2-----5-----4------0-----------|
C|-------------------------------------0-----0-----0---0-----0----------------| 
G|----2-----2-----2-----2-----2------3-----3-----3-------3-----3--------------|
D|--0-----0-----0-----0-----0-------------------------------------------------|(x5)

[Interlude Guitarra 1]

D|--------------------------------------------------------------------------|
A|--------------------------------------------------------------------------|
F|--------------------------0------------0-----0-----0-----0----------------|
C|------0-----0-----0-----0---0---0----0-----0-----0-----0-----0---0--------|
G|----0-----0-----0-----2-------2----3-----0-----2-----3-----2---0----------|
D|--3-----3-----2-----2-----------------------------------------------------|

D|-----------------------------------3--|
A|---------------------------1-------1--|
F|-------------------------0-----0---0--|
C|-------0-----0-----0---------------2--|
G|-----0-----0-----0-----2-----2-----3--|
D|---3-----3-----2-----2-------------0--|

[Guitarra 2]

D|------0-----0-----0-----0----0---------0----0-------0----0-----------------0--|
A|-----0-----0-----0-----0------0-------0----0-------0----0-----------------0---|
F|-9/12----11-----9-----7---5p4-----9/12---11---12/14---12---11--9/11--11/12----|
C|------------------------------------------------------------------------------|
G|------------------------------------------------------------------------------|
D|------------------------------------------------------------------------------|

D|---------(12)nh-----------------------------------------------------------------|
A|--(12)nh------------------------------------------------------------------------|
F|--------------------------------------------------------------------------------|
C|--------------------------------------------------------------------------------|
G|--------------------------------------------------------------------------------|
D|--------------------------------------------------------------------------------|

[Interlude 1 - Guitarra 2]

D|----0----0---0---0--------------0---------------------0-----0---0---0-------|
A|---0----0---0---0------------0-----0-----------------------0---0---0--------|
F|-12---11---9---7---5--4--5/7----------7/9--9/11--11/12---11---9---7---5--4--|
C|----------------------------------------------------------------------------|
G|----------------------------------------------------------------------------|
D|----------------------------------------------------------------------------|

D|-------0--------3-------------------------------------------------------------|
A|--1/3----3--1---1-------------------------------------------------------------|
F|----------------0-------------------------------------------------------------|
C|----------------2-------------------------------------------------------------|
G|----------------3-------------------------------------------------------------|
D|----------------0-------------------------------------------------------------|

[Coro] (Ambas Guitarras)                               Guit.1      Guit2

D|--3----2----0----3----2---|--3----2----0----3----3--|----------|--2--3-----|
A|--3----3----0----1----3---|--3----3----0----1----3--|----------|--3---3----|
F|--0----2----0----0----2---|--0----2----0----0----0--|----------|--2----0---|
C|--0----0----2----2----0---|--0----0----2----2----0--|---0---0--|--0-----0--|
G|--2---------2----3--------|--2---------2----3----2--|--0---0---|---------2-|
D|--3---------0----0--------|--3---------0----0----3--|-3---3----|----------3|

[Guitarra 1]

D|-------------------------------------------------------------------------|
A|-------------------------------------------------------------------------|
F|-----2-----0-----2-----0----------------2-----0-----2-----0-----2/4------|
C|---0-----0-----0-----0-------0--------0-----0-----0-----0-----0----------|
G|---------------------------0---0-----------------------------------------|
D|-3-----3-----3-----3-----3----------2-----2-----2-----2-----2------------|

D|---------------------------------------------------------------------------|
A|---------------------------------------------------------------------------|
F|------0-----2-----4-----2-----0--------0-----2-----5-----4-----0-----------|
C|-------------------------------------0-----0-----0---0-----0---------------|
G|----2-----2-----2-----2-----2------3-----3-----3-------3-----3-------------|
D|--0-----0-----0-----0-----0------------------------------------------------|

[Interlude Guitarra 1]

D|----------------------------------------------------------------------------|
A|----------------------------------------------------------------------------|
F|---------------------------0-------------0-----0-----0-----0----------------|
C|------0-----0-----0-----0-----0---0----0-----0-----0-----0-----0---0--------|
G|----0-----0-----0-----2---------2----3-----0-----2-----3-----2---0----------|
D|--3-----3-----2-----2-------------------------------------------------------|

D|------------------------------------3-------|
A|---------------------------1--------1-------|
F|------0-----0----0---------0--------0-------|
C|-----0-----0----0--------0------0---2-------|
G|-----------------------2-------2----3-------|
D|---3-----3-----2-----2--------------0-------|

[Guitarra 2]

D|------0-----0-----0-----0----0---------0----0-------0----0-----------------0--|
A|-----0-----0-----0-----0------0-------0----0-------0----0-----------------0---|
F|-9/12----11-----9-----7---5p4-----9/12---11---12/14---12---11--9/11--11/12----|
C|------------------------------------------------------------------------------|
G|------------------------------------------------------------------------------|
D|------------------------------------------------------------------------------|

D|---------(12)nh-----------------------------------------------------------------|
A|--(12)nh------------------------------------------------------------------------|
F|--------------------------------------------------------------------------------|
C|--------------------------------------------------------------------------------|
G|--------------------------------------------------------------------------------|
D|--------------------------------------------------------------------------------|

[Interlude 2 - Guitarra 2]

D|----0----0---0---0------------0------------------------0----0---0---0-----------|
A|---0----0---0---0------------------------------------------0---0---0------------|
F|-12---11---9---7---5--4/5--7-----7-----7/9--9/11-11/12---11---9---7----5--4/5---|
C|--------------------------------------------------------------------------------|
G|--------------------------------------------------------------------------------|
D|--------------------------------------------------------------------------------|

D|-----0----------------------------------------------------------------------------|
A|1/3----3--1---0-0-----0-----------------------------------------------------------|
F|-----------------2-2-0-0----------------------------------------------------------|
C|----------------------------------------------------------------------------------|
G|----------------------------------------------------------------------------------|
D|----------------------------------------------------------------------------------|

[Coro] (Ambas Guitarras)

D|--3----2----0-----3-----2----|--3----2----0-----3-----3---2---------|
A|--3----3----0-----1-----3----|--3----3----0-----1-----3---3---------|
F|--0----2----0-----0-----2----|--0----2----0-----0-----0---2---------|
C|--0----0----2-----2-----0----|--0----0----2-----2-----0---0---------|
G|--2---------2-----3----------|--2---------2-----3-----2-------------|
D|--3---------0-----0----------|--3---------0-----0-----3-------------|

[Interlude Guitarra 1]

D|-----------------------------------------|--------------------------------------------2-|
A|--------------------------------0--------|--------------------------------------------3-|
F|--------------------------0---0---0--(x7)|-----0-----2-----5----4-----0-------0-----0-2-|
C|-----0------2------4--------4------------|---0-----0-----0---0----0---------0-----0---0-|
G|---2------2------2------2----------------|-3-----3-----3------3-----3-----3-----3-------|
D|-2------2------2------2------------------|----------------------------------------------|

[Interlude Guitarra 2]               Rasgeo-----------------------------------|

D|-----------------------------------------|--3----------------------------2--|
A|------------------------------0--0--0----|--1----------------------------3--|
F|------0-------------0------0--0--0--0(x7)|--0----------------------------2--|
C|------4-------------4------4--4--4--4----|--2----------------------------0--|
G|------2-------------2------2--2--2--2----|--3-------------------------------|
D|-----------------------------------------|--0-------------------------------|

 [Coro Final] (Ambas Guitarras)
                                              fin
D|--3----2----0-----3-----2----|--3----2----0-----3-----3---2------|---0---|
A|--3----3----0-----1-----3----|--3----3----0-----1-----3---3------|---0---|
F|--0----2----0-----0-----2----|--0----2----0-----0-----0---2--(x2)|---0---|
C|--0----0----2-----2-----0----|--0----0----2-----2-----0---0------|---2---|
G|--2---------2-----3----------|--2---------2-----3-----2----------|---2---|
D|--3---------0-----0----------|--3---------0-----0-----3----------|---0---|


************************************

| /  Slide up
| p  Pull-off
| nh natural harmonic 

************************************
Suggest correction
comments
print report bad tab
15 comments total. Showing first comments.
0 reply
solitude_wolf 10 Dec 31, 2006 12:48 AM

good tabdsszzz ;))

0 reply
thatonechickris 10 Nov 04, 2007 05:03 PM

this is relaay accurate. it even sounds good in standard tuning. great song too. nice job

0 reply
thatonechickris 10 Nov 04, 2007 05:04 PM

this is really accurate. it even sounds good in standard tuning. great song too. nice job

guest
You may want to rate the tab now too:
select rating
Wanna post a correction for this tab? Suggest correction