Oops, an error
Loading. Please wait.

October Tab

version 5
version 5

Whole song

Interactive

63,299 views 51 this week
15 commentsread comments
1 2 3 4 5
excellent!
x 30
add to favorites
launch autoscroll
font size
0
reset
how to read this tab
guitar tuner
Autoscroll
slow
fast
+/-
esc
set tempo
stop
Help us to improve Ultimate-Guitar.com Take our survey!
×
Contributor
October by Evanescence
Tabbed by Aries_Mata05, Chile.

Guitarra 1
D|-------------------------------------------------------------------------|
A|-------------------------------------------------------------------------|
F|-----2-----0-----2-----0----------------2-----0-----2-----0-----2/4------|
C|---0-----0-----0-----0-------0--------0-----0-----0-----0-----0----------|
G|---------------------------0---0-----------------------------------------|
D|-3-----3-----3-----3-----3----------2-----2-----2-----2-----2------------|

----------------------------------------------------------------------------|
----------------------------------------------------------------------------|
------0-----2-----4-----2-----0--------0-----2-----5-----4------0-----------|
-------------------------------------0-----0-----0---0-----0----------------| x5
----2-----2-----2-----2-----2------3-----3-----3-------3-----3--------------|
--0-----0-----0-----0-----0-------------------------------------------------|

Interlude Guitarra 1
D|--------------------------------------------------------------------------|
A|--------------------------------------------------------------------------|
F|--------------------------0------------0-----0-----0-----0----------------|
C|------0-----0-----0-----0---0---0----0-----0-----0-----0-----0---0--------|
G|----0-----0-----0-----2-------2----3-----0-----2-----3-----2---0----------|
D|--3-----3-----2-----2-----------------------------------------------------|

-----------------------------------3--|
---------------------------1-------1--|
-------------------------0-----0---0--|
-------0-----0-----0---------------2--|
-----0-----0-----0-----2-----2-----3--|
---3-----3-----2-----2-------------0--|

Guitarra 2
D|------0-----0-----0-----0----0---------0----0-------0----0-----------------0--|
A|-----0-----0-----0-----0------0-------0----0-------0----0-----------------0---|
F|-9/12----11-----9-----7---5p4-----9/12---11---12/14---12---11--9/11--11/12----|
C|------------------------------------------------------------------------------|
G|------------------------------------------------------------------------------|
D|------------------------------------------------------------------------------|
---------(12)nh-----------------------------------------------------------------|
--(12)nh------------------------------------------------------------------------|
--------------------------------------------------------------------------------| (nh= natural harmonic)
--------------------------------------------------------------------------------|
--------------------------------------------------------------------------------|
--------------------------------------------------------------------------------|

Interlude 1 - Guitarra 2
D|----0----0---0---0--------------0---------------------0-----0---0---0-------|
A|---0----0---0---0------------0-----0-----------------------0---0---0--------|
F|-12---11---9---7---5--4--5/7----------7/9--9/11--11/12---11---9---7---5--4--|
C|----------------------------------------------------------------------------|
G|----------------------------------------------------------------------------|
D|----------------------------------------------------------------------------|
-------0--------3-------------------------------------------------------------|
--1/3----3--1---1-------------------------------------------------------------|
----------------0-------------------------------------------------------------|
----------------2-------------------------------------------------------------|
----------------3-------------------------------------------------------------|
----------------0-------------------------------------------------------------|

Coro (Ambas Guitarras)					Guit.1	   Guit2

D|--3----2----0----3----2---|--3----2----0----3----3--|----------|--2--3-----|
A|--3----3----0----1----3---|--3----3----0----1----3--|----------|--3---3----|
F|--0----2----0----0----2---|--0----2----0----0----0--|----------|--2----0---|
C|--0----0----2----2----0---|--0----0----2----2----0--|---0---0--|--0-----0--|
G|--2---------2----3--------|--2---------2----3----2--|--0---0---|---------2-|
A|--3---------0----0--------|--3---------0----0----3--|-3---3----|----------3|

Guitarra 1
D|-------------------------------------------------------------------------|
A|-------------------------------------------------------------------------|
F|-----2-----0-----2-----0----------------2-----0-----2-----0-----2/4------|
C|---0-----0-----0-----0-------0--------0-----0-----0-----0-----0----------|
G|---------------------------0---0-----------------------------------------|
D|-3-----3-----3-----3-----3----------2-----2-----2-----2-----2------------|

---------------------------------------------------------------------------|
---------------------------------------------------------------------------|
------0-----2-----4-----2-----0--------0-----2-----5-----4-----0-----------|
-------------------------------------0-----0-----0---0-----0---------------|
----2-----2-----2-----2-----2------3-----3-----3-------3-----3-------------|
--0-----0-----0-----0-----0------------------------------------------------|

Interlude Guitarra 1
D|----------------------------------------------------------------------------|
A|----------------------------------------------------------------------------|
F|---------------------------0-------------0-----0-----0-----0----------------|
C|------0-----0-----0-----0-----0---0----0-----0-----0-----0-----0---0--------|
G|----0-----0-----0-----2---------2----3-----0-----2-----3-----2---0----------|
D|--3-----3-----2-----2-------------------------------------------------------|

------------------------------------3-------|
---------------------------1--------1-------|
------0-----0----0---------0--------0-------|
-----0-----0----0--------0------0---2-------|
-----------------------2-------2----3-------|
---3-----3-----2-----2--------------0-------|

Guitarra 2
D|------0-----0-----0-----0----0---------0----0-------0----0-----------------0--|
A|-----0-----0-----0-----0------0-------0----0-------0----0-----------------0---|
F|-9/12----11-----9-----7---5p4-----9/12---11---12/14---12---11--9/11--11/12----|
C|------------------------------------------------------------------------------|
G|------------------------------------------------------------------------------|
D|------------------------------------------------------------------------------|
---------(12)nh-----------------------------------------------------------------|
--(12)nh------------------------------------------------------------------------|
--------------------------------------------------------------------------------|(nh= natural harmonic)
--------------------------------------------------------------------------------|
--------------------------------------------------------------------------------|
--------------------------------------------------------------------------------|

Interlude 2 - Guitarra 2
D|----0----0---0---0------------0------------------------0----0---0---0-----------|
A|---0----0---0---0------------------------------------------0---0---0------------|
F|-12---11---9---7---5--4/5--7-----7-----7/9--9/11-11/12---11---9---7----5--4/5---|
C|--------------------------------------------------------------------------------|
G|--------------------------------------------------------------------------------|
D|--------------------------------------------------------------------------------|
-----0----------------------------------------------------------------------------|
1/3----3--1---0-0-----0-----------------------------------------------------------|
-----------------2-2-0-0----------------------------------------------------------|
----------------------------------------------------------------------------------|
----------------------------------------------------------------------------------|
----------------------------------------------------------------------------------|

Coro (Ambas Guitarras)
D|--3----2----0-----3-----2----|--3----2----0-----3-----3---2---------|
A|--3----3----0-----1-----3----|--3----3----0-----1-----3---3---------|
F|--0----2----0-----0-----2----|--0----2----0-----0-----0---2---------|
C|--0----0----2-----2-----0----|--0----0----2-----2-----0---0---------|
G|--2---------2-----3----------|--2---------2-----3-----2-------------|
A|--3---------0-----0----------|--3---------0-----0-----3-------------|


Interlude Guitarra 1
D|-----------------------------------------|--------------------------------------------2-|
A|--------------------------------0--------|--------------------------------------------3-|
F|--------------------------0---0---0--(x7)|-----0-----2-----5----4-----0-------0-----0-2-|
C|-----0------2------4--------4------------|---0-----0-----0---0----0---------0-----0---0-|
G|---2------2------2------2----------------|-3-----3-----3------3-----3-----3-----3-------|
D|-2------2------2------2------------------|----------------------------------------------|

Interlude Guitarra 2                 Rasgeo-----------------------------------|
D|-----------------------------------------|--3----------------------------2--|
A|------------------------------0--0--0----|--1----------------------------3--|
F|------0-------------0------0--0--0--0(x7)|--0----------------------------2--|
C|------4-------------4------4--4--4--4----|--2----------------------------0--|
G|------2-------------2------2--2--2--2----|--3-------------------------------|
D|-----------------------------------------|--0-------------------------------|

Coro Final (Ambas Guitarras)				     	      fin
D|--3----2----0-----3-----2----|--3----2----0-----3-----3---2------|---0---|
A|--3----3----0-----1-----3----|--3----3----0-----1-----3---3------|---0---|
F|--0----2----0-----0-----2----|--0----2----0-----0-----0---2--(x2)|---0---|
C|--0----0----2-----2-----0----|--0----0----2-----2-----0---0------|---2---|
G|--2---------2-----3----------|--2---------2-----3-----2----------|---2---|
A|--3---------0-----0----------|--3---------0-----0-----3----------|---0---|

He hecho algunos arreglos que debi haber hecho antes, pero ahi estan.
Nota: Tienes que poner mucha atención para agarrar bien el ritmo de los Tab y los acordes.
¿Consultas, Comentarios, sugerencias, críticas? Mi e-mail: aries_mata03@hotmail.com

I've made some changes that I should have made before, but here they are.
Note: You must listen the song to get the tabs and chords correctly.
Any question, comments, etc, email me at aries_mata03@hotmail.com
Suggest correction What's this?
You can suggest a correction to this tab. Community and Mods will review your correction and vote to approve or reject it.
comments
print report bad tab
15 comments total. Showing first comments.
0 reply
solitude_wolf 11 wrote on December 31 2006, 05:48 am

good tabdsszzz ;))

0 reply
thatonechickris 15 wrote on November 4 2007, 10:03 pm

this is relaay accurate. it even sounds good in standard tuning. great song too. nice job

0 reply
thatonechickris 15 wrote on November 4 2007, 10:04 pm

this is really accurate. it even sounds good in standard tuning. great song too. nice job

I want to post or [tab]
guest
You may want to rate the tab now too:
select rating
Please do not post tabs as comments. Select "correction" instead!