Oops, an error
Loading. Please wait.

Only One Tab

version 4
version 4

Whole song

Interactive

3,691 views 6 this week
3 commentsread comments
1 2 3 4 5
excellent!
x 4
add to favorites
launch autoscroll
font size
0
reset
how to read this tab
guitar tuner
Tab Pro tools
  • play this tab
  • loop segment
  • change instrument
  • show fretboard
  • metronome
×
Best way to learn
"Only One"
Autoscroll
slow
fast
+/-
esc
set tempo
stop
Contributor
NOTE: This tab might be just a little more difficult than the last one I wrote, but I 
it to be a lot more accurate - especially when comparing it to a number of live 
the sound you get from this tab correctly matches the notes John and Terry play onstage.
If you need help tuning your guitar for this song, head over to 
to make your life a bit easier.

Now, enjoy. ;D

==================================================

 h = hammer-on
 . = palm mute
 \ = slide down
 / = slide up
 ~ = vibrato


[VERSE 1 / 0:56]
Riff A
D|-----------------------|-----------------------|
A|-----------------------|-----------------------|
F|-----------------------|-----------------------|
C|-5-5-5-5-5--5-5--5-5\--|-5-5-5-5-5--5-5--5-5\--|
G|-5-5-5-5-5--5-5--5-5\--|-5-5-5-5-5--5-5--5-5\--|
C|-5-5-5-5-5--5-5--5-5\--|-5-5-5-5-5--5-5--5-5\--|
   . . . . .  . .  .       . . . . .  . .  .

D|-----------------------|---------------------------|
A|-----------------------|---------------------------|
F|-----------------------|---------------------------|
C|-5-5-5-5-5--5-5--5-5\--|-5-5-5-5-5--5-5--5-5--3-3--|
G|-5-5-5-5-5--5-5--5-5\--|-5-5-5-5-5--5-5--5-5--3-3--|
C|-5-5-5-5-5--5-5--5-5\--|-5-5-5-5-5--5-5--5-5--3-3--|
   . . . . .  . .  .       . . . . .  . .  .

D|----------------------|---------------------------|
A|----------------------|---------------------------|
F|----------------------|---------------------------|
C|-1-1-1-1-1--1-1--1-1--|-1-1-1-1-1--1-1--1-1--3-3--|
G|-1-1-1-1-1--1-1--1-1--|-1-1-1-1-1--1-1--1-1--3-3--|
C|-1-1-1-1-1--1-1--1-1--|-1-1-1-1-1--1-1--1-1--3-3--|
   . . . . .  . .  .      . . . . .  . .  .

D|-----------------------|-----------------------|
A|-----------------------|-----------------------|
F|-----------------------|-----------------------|
C|-5-5-5-5-5--5-5--5-5\--|-5-5-5-5-5--5-5--5-5\--|
G|-5-5-5-5-5--5-5--5-5\--|-5-5-5-5-5--5-5--5-5\--|
C|-5-5-5-5-5--5-5--5-5\--|-5-5-5-5-5--5-5--5-5\--|
   . . . . .  . .  .       . . . . .  . .  .

[CHORUS / 1:35] x2
Riff B
D|----------------------------------|
A|----------------------------------|
F|----------------------------------|
C|-5-5-5------------5-5-5-----------|
G|-5-5-5-/5-3-6-5\--5-5-5-/5-3-1-0--|
C|-5-5-5------------5-5-5-----------|
   . .              . .

                                      2nd time
D|----------------------------------||-------|
A|----------------------------------||-------|
F|----------------------------------||-------|
C|-1-1-1------------1-1-1-----------||--5~---|
G|-1-1-1-/5-3-6-5\--1-1-1-/5-3-1-0--||--5~---|
C|-1-1-1------------1-1-1-----------||--5~---|
   . .              . .                 let ring..

[VERSE 2 / 2:08] x 2
Riff A
D|-----------------------|-----------------------|
A|-----------------------|-----------------------|
F|-----------------------|-----------------------|
C|-5-5-5-5-5--5-5--5-5\--|-5-5-5-5-5--5-5--5-5\--|
G|-5-5-5-5-5--5-5--5-5\--|-5-5-5-5-5--5-5--5-5\--|
C|-5-5-5-5-5--5-5--5-5\--|-5-5-5-5-5--5-5--5-5\--|
   . . . . .  . .  .       . . . . .  . .  .

D|-----------------------|---------------------------|
A|-----------------------|---------------------------|
F|-----------------------|---------------------------|
C|-5-5-5-5-5--5-5--5-5\--|-5-5-5-5-5--5-5--5-5--3-3--|
G|-5-5-5-5-5--5-5--5-5\--|-5-5-5-5-5--5-5--5-5--3-3--|
C|-5-5-5-5-5--5-5--5-5\--|-5-5-5-5-5--5-5--5-5--3-3--|
   . . . . .  . .  .       . . . . .  . .  .

D|----------------------|---------------------------|
A|----------------------|---------------------------|
F|----------------------|---------------------------|
C|-1-1-1-1-1--1-1--1-1--|-1-1-1-1-1--1-1--1-1--3-3--|
G|-1-1-1-1-1--1-1--1-1--|-1-1-1-1-1--1-1--1-1--3-3--|
C|-1-1-1-1-1--1-1--1-1--|-1-1-1-1-1--1-1--1-1--3-3--|
   . . . . .  . .  .      . . . . .  . .  .

D|-----------------------|-----------------------|
A|-----------------------|-----------------------|
F|-----------------------|-----------------------|
C|-5-5-5-5-5--5-5--5-5\--|-5-5-5-5-5--5-5--5-5\--|
G|-5-5-5-5-5--5-5--5-5\--|-5-5-5-5-5--5-5--5-5\--|
C|-5-5-5-5-5--5-5--5-5\--|-5-5-5-5-5--5-5--5-5\--|
   . . . . .  . .  .       . . . . .  . .  .

[CHORUS / 3:13] x2
Riff B
D|----------------------------------|
A|----------------------------------|
F|----------------------------------|
C|-5-5-5------------5-5-5-----------|
G|-5-5-5-/5-3-6-5\--5-5-5-/5-3-1-0--|
C|-5-5-5------------5-5-5-----------|
   . .              . .

                                      2nd time
D|----------------------------------||--------|
A|----------------------------------||--------|
F|----------------------------------||--------|
C|-1-1-1------------1-1-1-----------||--------|
G|-1-1-1-/5-3-6-5\--1-1-1-/5-3-1-0--||--------|
C|-1-1-1------------1-1-1-----------||--5-----|
   . .              . .

[BRIDGE / 3:52]
Riff C
D|---------------------------------------------------------|
A|---------------------------------------------------------|
F|-7-x8---5-x8---------------------------------------------|
C|-7------5-------1-x8---3-x8---5-x8---3-x8---1-x8---0-x8--|
G|-5------3-------1------3------5------3------1------0-----|
C|----------------1------3------5------3------1------0-----|

[CHORUS / 4:05] x2
Riff B
D|----------------------------------|
A|----------------------------------|
F|----------------------------------|
C|-5-5-5------------5-5-5-----------|
G|-5-5-5-/5-3-6-5\--5-5-5-/5-3-1-0--|
C|-5-5-5------------5-5-5-----------|
   . .              . .

D|----------------------------------|
A|----------------------------------|
F|----------------------------------|
C|-1-1-1------------1-1-1-----------|
G|-1-1-1-/5-3-6-5\--1-1-1-/5-3-1-0--|
C|-1-1-1------------1-1-1-----------|
   . .              . .

[OUTRO / 4:31] x4
RIFF D
D|------------------|
A|------------------|
F|------------------|
C|-5-5---5---5-5-5--|
G|-5-5-5-5-6-5-5-5--|
C|-5-5---5---5-5-5--|
   . .   .   . . . (gradually remove palm mutes)
comments
print report bad tab
3 comments total.
0 reply
RainbowBassist wrote on November 29 2006, 06:04 pm

Very nice :D

0 reply
CnlFrost wrote on December 2 2006, 12:55 am

glorious!

+1 reply
Jonjy2 wrote on January 19 2007, 04:49 pm

Very good so far! I havent looked thru the entire tab yet...
I am making a Guitar Pro out of this tab...Ill put yur name in there...awesome job man...

great song 2

I want to post or [tab]
guest
You may want to rate the tab now too:
select rating
Please do not post tabs as comments. Select "correction" instead!