Oops, an error
Loading. Please wait.

Secret Door Acoustic Tab

1,009 views 1 this week
no commentswrite comment
1 2 3 4 5
excellent!
x 1
add to favorites
launch autoscroll
font size
0
reset
how to read this tab
guitar tuner
Tab Pro tools
  • play this tab
  • loop segment
  • change instrument
  • show fretboard
  • metronome
Autoscroll
slow
fast
+/-
esc
set tempo
stop
Contributor
TUNING:STANDARD

 INTRO
|-------15-----|
|-----17--17---|
|---16------16-|
|-14-----------| 4x
|--------------|
|--------------|


 VERSE

 guitar 1
|-------15----------15----------14----------14-----|
|-----17--17------17--17------16--16------16--16---|
|---16------16--16------16--16------16--16------16-|
|-14----------14----------13----------13-----------| 2x
|--------------------------------------------------|
|--------------------------------------------------|

|-------15-----------------------------------------|
|-----17--17--------17----------15----------16-----|
|---16------16----17--17------------------16--16---|
|-14------------17------17----17--17----16------16-|
|-------------15------------17------1714-----------|
|-------------------------15-----------------------|

|-------15-----|
|-----17--17---|
|---16------16-|
|-14-----------| 2x
|--------------|
|--------------|

|-------15----------15----------14----------14-----|
|-----17--17------17--17------16--16------16--16---|
|---16------16--16------16--16------16--16------16-|
|-14----------14----------13----------13-----------| 2x
|--------------------------------------------------|
|--------------------------------------------------|

|-------15-----------------------------------------|
|-----17--17--------17----------15----------16-----|
|---16------16----17--17------------------16--16---|
|-14------------17------17----17--17----16------16-|
|-------------15------------17------1714-----------|
|-------------------------15-----------------------|

|-------15-------|
|-----17--17-----|
|---16------16---|
|-14----------14-|
|----------------|
|----------------|

 
 guitar 2

|--------------------------|
|----8-----8-----7-----7---|
|---9-9---9-9---8-8---8-8--|
|--9---9-9---9-9---9-9---9-| 2x
|-7-----7-----6-----6------|
|--------------------------|

|--------------------------|
|----8-----5-----3-----4---|
|---9-9---5-5---------4-4--|
|--9---9-5---5--5-5--4---4-|
|-7-----3------5---52------|
|-------------3------------|

|---------|
|---------|
|----0----|
|---2-2---|
|--2---2--|
|-0-----0-|



 CHORUS

 guitar 1

    
    D           Am            D
 
And I, I will remember how to fly

             Am          D
                                                             |------|
Unlock the heavens in my mind                                |----4-|
                                                             |---4--|
           Am                   D    C      B<-------------  |--4---|
                                                             |-2----|
Follow my love back through the same secret door             |------|


 guitar2
|--------------------------|
|---3--3--3--3--1--1--0--0-|
|--2--2--2--2--2--2--2--2--|
|-0--0--0--0--2--2--2--2---| 3x
|--------------------------|
|--------------------------|

|---------------------|
|---3--3--1--1---4--4-|
|--2--2--0--0---4--4--|
|-0--0---------4--4---|
|-------3--3--2-------|
|---------------------| 


 VERSE

 guitar 1
|-------15-----|
|-----17--17---|
|---16------16-|
|-14-----------| 2x
|--------------|
|--------------|

|-------15----------15----------14----------14-----|
|-----17--17------17--17------16--16------16--16---|
|---16------16--16------16--16------16--16------16-|
|-14----------14----------13----------13-----------| 2x
|--------------------------------------------------|
|--------------------------------------------------|

|-------15-----------------------------------------|
|-----17--17--------17----------15----------15-----|
|---16------16----17--17------------------16--16---|
|-14------------17------17----17--17----16------16-|
|-------------15------------17------1714-----------|
|-------------------------15-----------------------|

|-------15-------|
|-----17--17-----|
|---16------16---|
|-14----------14-|
|----------------|
|----------------|

 guitar2

|--------------|
|----8-----8---|
|---9-9---9-9--|
|--9---9-9---9-|
|-7-----7------|
|--------------|

|--------------------------|
|----8-----8-----7-----7---|
|---9-9---9-9---8-8---8-8--|
|--9---9-9---9-9---9-9---9-| 2x
|-7-----7-----6-----6------|
|--------------------------|

|--------------------------|
|----8-----5-----3-----3---|
|---9-9---5-5---------4-4--|
|--9---9-5---5--5-5--4---4-|
|-7-----3------5---52------|
|-------------3------------|

|---------|
|---------|
|----0----|
|---2-2---|
|--2---2--|
|-0-----0-|


REPEAT CHORUS


 BRIDGE

 guitar 1
|-------15----------15----------14----------14-----|
|-----17--17------17--17------16--16------16--16---|
|---16------16--16------16--16------16--16------16-|
|-14----------14----------13----------13-----------| 2x
|--------------------------------------------------|
|--------------------------------------------------|

|-------15-----------------------------------------|
|-----17--17--------17----------15----------16-----|
|---16------16----17--17------------------16--16---|
|-14------------17------17----17--17----16------16-|
|-------------15------------17------1714-----------|
|-------------------------15-----------------------|

|-------15-------|
|-----17--17-----|
|---16------16---|
|-14----------14-|
|----------------|
|----------------|
 
 guitar 2
|--------------------------|
|----8-----8-----7-----7---|
|---9-9---9-9---8-8---8-8--|
|--9---9-9---9-9---9-9---9-| 
|-7-----7-----6-----6------|
|--------------------------|

|--------------------------|
|----8-----5-----3-----3---|
|---9-9---5-5---------4-4--|
|--9---9-5---5--5-5--4---4-|
|-7-----3------5---52------|
|-------------3------------|


REPEAT CHORUS

 OUTRO
|---15----15----15----15---15-|
|-----17----17----17----17-17-|
|---16----16----16----16---16-|
|-14-----------------------14-|
|-------15----14----12--------|
|-----------------------------|

|--------------------------0--|
|---8-----8-----8-----8----0--|
|-----9-----9-----9-----9--9--|
|--------------------------9--|
|-7-----------------0------7--|
|-------8-----7------------0--|
comments
We did not receive enough feedback on this tab! Please rate:
print report bad tab
1 2 3 4 5
I want to post or [tab]
guest
You may want to rate the tab now too:
select rating
Please do not post tabs as comments. Select "correction" instead!