Oops, an error
Loading. Please wait.

Sick Tab

version 1
version 1

Whole song

3,515 views 3 this week
3 commentsread comments
1 2 3 4 5
accurate
x 3
add to favorites
launch autoscroll
font size
0
reset
how to read this tab
guitar tuner
Autoscroll
slow
fast
+/-
esc
set tempo
stop
Help us to improve Ultimate-Guitar.com Take our survey!
×
Author
Tuning
D A D G B E
----------------------------------------------------
                Sick - Evanescence
----------------------------------------------------
Tabbed by: Klee1688
Email: spot_the_village_loony_836@hotmail.com

Tuning: Drop D

0:12
1st verse    x2
e|------------------------------------|
B|------------------------------------|
G|------------------------------------|x4
D|--------0-------0-----1p0-----------|
A|----------0-------0-----------------|
D|---0-00------00-----0-----00--------|

e|------------------------------------|
B|------------------------------------|
G|------------------------------------|x1
D|---------3--------0-----------------|
A|-----------3--------5---------------|
D|----3-33------5-55---5-0------------|

---------------------------------------------------------------------------
0:39
Pre - Chorus
e|-------------------------------|
B|-------------------------------|
G|-------------------------------|
D|---5------8-----88-------------|
A|---5--555-8-888-88-------------|
D|---5--555-8-888-88-------------|
        ...   ...

"hold on..."
e|---------------------------------------------------------|
B|---------------------------------------------------------|
G|---------------------------------------------------------|
D|---0-----0-------3--5-----8-----8-5----------------------|
A|---0-000-0-00000h3--5-555-8-888-8-5-333333333333333/5----|
D|---0-000-0-00000h3--5-555-8-888-8-5-333333333333333/5----|
       ...   .....      ...   ...     ..........
---------------------------------------------------------------------------
0:51
Chorus

e|----------------------------------------------------|
B|----------------------------------------------------|
G|----------------------------------------------------|
D|--------------------------------------8-------------|
A|--------------------------------------8-888-8\7-----|
D|---12p0-00--12p0-00--0-0-0-0-12p0-00--8-888-8\7-----|  
                                          ...
e|----------------------------------------------------|
B|----------------------------------------------------|
G|----------------------------------------------------|
D|--------------------------------------3-------------|
A|--------------------------------------3-3333/5------|
D|---12p0-00--12p0-00--0-0-0-0-12p0-00--3-3333/5------|
                                          ...
e|----------------------------------------------------|
B|----------------------------------------------------|
G|----------------------------------------------------|
D|--------------------------------------8-------------|
A|--------------------------------------8-888-8\7-----|
D|---12p0-00--12p0-00--0-0-0-0-12p0-00--8-888-8\7-----|
                                          ...
e|----------------------------------------------------|
B|----------------------------------------------------|
G|----------------------------------------------------|
D|--------------------------------------3~~----0~~----|
A|--------------------------------------3~~----0~~----|
D|---12p0-00--12p0-00--0-0-0-0-12p0-00--3~~----0~~----|

---------------------------------------------------------------------------
1:21
2nd verse

   "the way i feel..."
e|--------------------|
B|--------------------|
G|--------------------|
D|--------------------|
A|--------------------|
D|------00000---------|
        .....
 "i can still taste..."
e|--------------------|
B|--------------------|
G|--------------------|
D|--------------------|
A|--------------------|
D|------00000---------|
        .....
 "the poisen..."
e|--------------------|
B|--------------------|
G|--------------------|
D|--------------------|
A|--------------------|
D|------00000---------|
        .....
  "of every..."
e|------------------------------------|
B|------------------------------------|
G|------------------------------------|
D|---------3--------0-----------------|
A|-----------3--------5---------------|
D|----3-33------5-55---5-0------------|

---------------------------------------------------------------------------
1:42
Pre - Chorus
  
e|-------------------------------|
B|-------------------------------|
G|-------------------------------|
D|---5------8-----88-------------|
A|---5--555-8-888-88-------------|
D|---5--555-8-888-88-------------|
    "hold on..."
e|---------------------------------------------------------|
B|---------------------------------------------------------|
G|---------------------------------------------------------|
D|---0-----0-------3--5-----8-----8-5----------------------|
A|---0-000-0-00000h3--5-555-8-888-8-5-333333333333333/5----|
D|---0-000-0-00000h3--5-555-8-888-8-5-333333333333333/5----|
       ...   .....      ...   ...     ..........
---------------------------------------------------------------------------
1:54   Repeat Chorus
---------------------------------------------------------------------------
2:18
Bridge  
     "some day..."
e|----------------------------------------|
B|----------------------------------------|
G|----------------------------------------|
D|---7-----3----2--0-----0-----0----------|
A|---7-777-3-33-2--0-000-0-000-0-00-------|
D|---7-777-3-33-2--0-000-0-000-0-00-------|
       ...   ..      ...   ...   ..
     "some day i will break through..."
e|----------------------------------------|
B|----------------------------------------|
G|----------------------------------------|
D|---7-----8----2--0-----0-----0----------|
A|---7-777-8-88-2--0-000-0-000-0-0--------|
D|---7-777-8-88-2--0-000-0-000-0-0--------|
       ...   ..      ...   ...   .
        "and nothing you tell yourself..."
e|-----------------------------------------------|
B|-----------------------------------------------|
G|-----------------------------------------------|
D|---33333333333333337777777777777777------------|
A|---33333333333333337777777777777777------------|
D|---33333333333333337777777777777777------------|
        "save us from the truth..."
e|-----------------------------------------------|
B|-----------------------------------------------|
G|-----------------------------------------------|
D|---0000000000000000-8----8----8----8----8\7----|
A|---0000000000000000-8-88-8-88-8-88-8-88-8\7----|
D|---0000000000000000-8-88-8-88-8-88-8-88-8\7----|
                        ..   ..   ..   ..
---------------------------------------------------------------------------
2:42
Last Chorus

e|-------------------------------------|
B|-------------------------------------|
G|-------------------------------------|
D|---------------0-----8---------------|
A|---3///12\\\\--0-000-8-8888\7--------|
D|---3///12\\\\--0-000-8-8888\7--------|
                   ...   ...
e|-------------------------------------|
B|-------------------------------------|
G|-------------------------------------|
D|---------------0-----3---------------|
A|---3///12\\\\--0-000-3---------------|
D|---3///12\\\\--0-000-3---------------|
                   ...
e|----------------------------------------------------|
B|----------------------------------------------------|
G|----------------------------------------------------|
D|--------------------------------------8-------------|
A|--------------------------------------8-888-8\7-----|
D|---12p0-00--12p0-00--0-0-0-0-12p0-00--8-888-8\7-----|
                                          ...
e|----------------------------------------------------|
B|----------------------------------------------------|
G|----------------------------------------------------|
D|--------------------------------------3~~----0~~----|
A|--------------------------------------3~~----0~~----|
D|---12p0-00--12p0-00--0-0-0-0-12p0-00--3~~----0~~----|

The End


************************************


| .   palm mute
| /   slide up
| \   slide down
| h   hammer-on
| p   pull-off
| ~   vibrato
| +   harmonic
| x   Mute note
| b   Bend
| pb  Pre-bend
| br  Bend release
| pbr Pre-bend release
| brb Bend release bend

************************************
Suggest correction
What's this?
You can suggest a correction to this tab. Community and Mods will review your correction and vote to approve or reject it.
comments
We did not receive enough feedback on this tab! Please rate:
print report bad tab
1 2 3 4 5
3 comments total.
0 reply
pablodem 11 wrote on October 22 2011, 10:06 am

intro sounds bad

0 reply
klee1688 2,396 wrote on October 22 2011, 08:42 pm

tab it yourself then.

0 reply
FireReaverX 1,374 wrote on November 5 2011, 02:03 pm

The verse should be:


E|-----------------------------------------------------------------|
B|-----------------------------------------------------------------|
G|-----------------------------------------------------------------|
D|-----------------------------------------------------------------|
A|---------5p0-------5p0---6p0-------------5p0-------5p0---6p0-5-/-|
D|-0---0-0-----0-0-------0-----0-0-0---0-0-----0-0-------0---------|

E|---------------------------------|
B|---------------------------------|
G|---------------------------------|
D|---------------------------------|
A|-8-8-8-8-8-8-8-\-3-3-3-3-3-3-3p0-|
D|---------------------------------|


The rest of the song looks good.

guest
You may want to rate the tab now too:
select rating
Please do not post tabs as comments. Select "correction" instead!