Oops, an error
Loading. Please wait.

Snow White Queen bass

version 1
version 1

Whole song

  • This is an accurate tab for this song which utilis... Show more

Interactive

73 views 1 this week
no commentswrite comment
1 2 3 4 5
x 4
add to favorites
×
Save as Personal and add changes to this tab that will be seen only by you. Learn more ›
×
You can save this tab as Personal to edit and correct it or add notes. All changes will be seen only by you. Learn more »
launch autoscroll
font size
0
reset
guitar tuner
backing track
0:00
0:00
edit
Autoscroll
slow
fast
+/-
esc
set tempo
stop
About this tab version
This is an accurate tab for this song which utilises notes on all 5 strings of the bass, but 99% could also be played on a 4 string bass in Drop D instead. Was this info helpful? Yes No
Title: Snow White Queen
Artist: Evanescence
Album: The Open Door
Tuning: 5 String Standard (BEADG)
Tab Author: Pearce Hamblin (The Bass Diaries)

  [Intro]                             [Verse 1]
G|--------|--------|--------|--------|--------|--------|--------|--------|--------|
D|--------|--------|--------|--------|--------|--------|--------|--------|--------|
A|--------|--------|--------|--------|--------|--------|--------|--------|--------|
E|--------|--------|--------|--------|--------|--------|--------|--------|--------|
B|--------|--------|--------|--------|--------|--------|--------|--------|--------|


G|--------|--------|--------|--------|--------|--------|--------|--------|--------|
D|--------|--------|--------|--------|--------|--------|--------|--------|--------|
A|--------|--------|--------|--------|--------|--------|--------|--------|--------|
E|--------|--------|--------|--------|--------|--------|--------|--------|--------|
B|--------|--------|--------|--------|--------|--------|--------|--------|--------|

                    [Pre-Chorus 1]
G|--------|--------|--------|----------------|--------|--------|--------|----------------|
D|--------|--------|--------|----------------|--------|--------|--------|----------------|
A|--------|--------|--------|----------------|--------|--------|--------|----------------|
E|--------|--------|-1------|------------3---|-5------|--------|-1------|------------3---|
B|--------|--------|--------|----------------|--------|--------|--------|----------------|


G|--------|--------|----------------|--------|------------------|------------------------------|
D|--------|--------|----------------|--------|------------------|------------------------------|
A|--------|--------|----------------|--------|------------------|-6---6---6---5----3---3---3---|
E|-5------|--------|-5---5----------|--------|-5---5------3--5--|------------------------------|
B|--------|--------|----------------|--------|------------------|------------------------------|


  [Chorus 1]
G|------------------------|---------------------------------|------------------------|
D|------------------------|---------------------------------|------------------------|
A|-0---0----0---0-----0---|-----------------3---------------|-0---0----0---0-----0---|
E|------------------------|-1---1---1---1-------1---1---3---|------------------------|
B|------------------------|---------------------------------|------------------------|


G|---------------------------------|------------------------|---------------------------------|
D|---------------------------------|------------------------|---------------------------------|
A|-----------------3---------------|-0---0----0---0-----0---|-----------------3---------------|
E|-1---1---1---1-------1---1---3---|------------------------|-1---1---1---1-------1---1---3---|
B|---------------------------------|------------------------|---------------------------------|


G|--------------2---------------|---------------------------|------------------------|
D|------------------------------|---------------------------|------------------------|
A|-0---0----0-------0---0-------|---------------------------|-0---0----0---0-----0---|
E|--------------------------3---|---------------------------|------------------------|
B|------------------------------|-4---4---4---3----1----1---|------------------------|


G|---------------------------------|------------------------|---------------------------------|
D|---------------------------------|------------------------|---------------------------------|
A|-----------------3---------------|-0---0----0---0-----0---|-----------------3---------------|
E|-1---1---1---1-------1---1---3---|------------------------|-1---1---1---1-------1---1---3---|
B|---------------------------------|------------------------|---------------------------------|


G|------------------------|---------------------------------|--------------2---------------|
D|------------------------|---------------------------------|------------------------------|
A|-0---0----0---0-----0---|-----------------3---------------|-0---0----0-------0---0-------|
E|------------------------|-1---1---1---1-------1---1---3---|--------------------------3---|
B|------------------------|---------------------------------|------------------------------|

                                                [Verse 2]
G|---------------------------|--------|--------|--------|--------|--------|--------|
D|---------------------------|--------|--------|--------|--------|--------|--------|
A|---------------------------|--------|--------|--------|--------|--------|--------|
E|---------------------------|--------|--------|--------|--------|--------|--------|
B|-4---4---4---3----1----1---|--------|--------|--------|--------|--------|--------|


G|--------|--------|--------|--------|--------|--------|--------|--------|--------|
D|--------|--------|--------|--------|--------|--------|--------|--------|--------|
A|--------|--------|--------|--------|--------|--------|--------|--------|--------|
E|--------|--------|--------|--------|--------|--------|--------|--------|--------|
B|--------|--------|--------|--------|--------|--------|--------|--------|--------|

                             [Pre-Chorus 2]
G|--------|--------|--------|--------|----------------|--------|--------|--------|
D|--------|--------|--------|--------|----------------|--------|--------|--------|
A|--------|--------|--------|--------|----------------|--------|--------|--------|
E|--------|--------|--------|-1------|------------3---|-5------|--------|-1------|
B|--------|--------|--------|--------|----------------|--------|--------|--------|

                                                       [Chorus 2]
G|----------------|--------|--------|--------|--------|------------------------|
D|----------------|--------|--------|--------|--------|------------------------|
A|----------------|--------|--------|--------|--------|-0---0----0---0-----0---|
E|------------3---|-5------|--------|--------|--------|------------------------|
B|----------------|--------|--------|--------|--------|------------------------|


G|---------------------------------|------------------------|---------------------------------|
D|---------------------------------|------------------------|---------------------------------|
A|-----------------3---------------|-0---0----0---0-----0---|-----------------3---------------|
E|-1---1---1---1-------1---1---3---|------------------------|-1---1---1---1-------1---1---3---|
B|---------------------------------|------------------------|---------------------------------|


G|------------------------|---------------------------------|--------------2---------------|
D|------------------------|---------------------------------|------------------------------|
A|-0---0----0---0-----0---|-----------------3---------------|-0---0----0-------0---0-------|
E|------------------------|-1---1---1---1-------1---1---3---|--------------------------3---|
B|------------------------|---------------------------------|------------------------------|


G|---------------------------|------------------------|---------------------------------|
D|---------------------------|------------------------|---------------------------------|
A|---------------------------|-0---0----0---0-----0---|-----------------3---------------|
E|---------------------------|------------------------|-1---1---1---1-------1---1---3---|
B|-4---4---4---3----1----1---|------------------------|---------------------------------|


G|------------------------|---------------------------------|------------------------|
D|------------------------|---------------------------------|------------------------|
A|-0---0----0---0-----0---|-----------------3---------------|-0---0----0---0-----0---|
E|------------------------|-1---1---1---1-------1---1---3---|------------------------|
B|------------------------|---------------------------------|------------------------|


G|---------------------------------|--------------2---------------|---------------------------|
D|---------------------------------|------------------------------|---------------------------|
A|-----------------3---------------|-0---0----0-------0---0-------|---------------------------|
E|-1---1---1---1-------1---1---3---|--------------------------3---|---------------------------|
B|---------------------------------|------------------------------|-4---4---4---3----1----1---|


  [Bridge]
G|---------------------------|---------------------------|---------------------------|
D|---------------------------|---------------------------|---------------------------|
A|---------------------------|---------------------------|---------------------------|
E|-0---0---0---0-----0---0---|-1---1---1---1-----1---1---|-3---3---3---3-----3---3---|
B|---------------------------|---------------------------|---------------------------|


G|------------------------|---------------------------|---------------------------|--------|-------------|
D|------------------------|---------------------------|---------------------------|--------|-------------|
A|------------------------|---------------------------|---------------------------|--------|-------------|
E|-5---5---5---5-----5----|-1---1---1---1-----1---1---|-0---0---0---0-----0---0---|-5------|-3-----5-----|
B|------------------------|---------------------------|---------------------------|--------|-------------|


G|---------------------------|---------------------------|---------------------------|
D|---------------------------|---------------------------|---------------------------|
A|---------------------------|---------------------------|---------------------------|
E|-0---0---0---0-----0---0---|-1---1---1---1-----1---1---|-3---3---3---3-----3---3---|
B|---------------------------|---------------------------|---------------------------|


G|------------------------|---------------------------|---------------------------|
D|------------------------|---------------------------|---------------------------|
A|------------------------|---------------------------|---------------------------|
E|-5---5---5---5-----5----|-1---1---1---1-----1---1---|---------------------------|
B|------------------------|---------------------------|-3---3---3---3-----3---3---|

                                                                [Chorus 3]
G|---------------------------|---------------------------------|--------------------|--------|
D|---------------------------|---------------------0-----------|--------------------|--------|
A|---------------------------|-------------------------3---2---|-0---0----0---0-----|--------|
E|-0---0---0---0-----0---0---|-0---0---0---0---0---------------|--------------------|--------|
B|---------------------------|---------------------------------|--------------------|--------|


G|--------------------|--------|--------------------|--------|--------------2---------------|
D|--------------------|--------|--------------------|--------|------------------------------|
A|-0---0----0---0-----|--------|-0---0----0---0-----|--------|-0---0----0-------0---0-------|
E|--------------------|--------|--------------------|--------|--------------------------3---|
B|--------------------|--------|--------------------|--------|------------------------------|


G|---------------------------|------------------------|---------------------------------|
D|---------------------------|------------------------|---------------------------------|
A|---------------------------|-0---0----0---0-----0---|-----------------3---------------|
E|---------------------------|------------------------|-1---1---1---1-------1---1---3---|
B|-4---4---4---3----1----1---|------------------------|---------------------------------|


G|------------------------|---------------------------------|------------------------|
D|------------------------|---------------------------------|------------------------|
A|-0---0----0---0-----0---|-----------------3---------------|-0---0----0---0-----0---|
E|------------------------|-1---1---1---1-------1---1---3---|------------------------|
B|------------------------|---------------------------------|------------------------|


G|---------------------------------|--------------2---------------|---------------------------|
D|---------------------------------|------------------------------|---------------------------|
A|-----------------3---------------|-0---0----0-------0---0-------|---------------------------|
E|-1---1---1---1-------1---1---3---|--------------------------3---|---------------------------|
B|---------------------------------|------------------------------|-4---4---4---3----1----1---|

  [Outro]
G|--------------------|---------------------------------|------------------------|
D|--------------------|---------------------------------|------------------------|
A|--------------------|---------------------------------|-0---0----0---0-----0---|
E|-1---1----1---1-----|-------------------------1---3---|------------------------|
B|--------------------|---------------------------------|------------------------|


G|---------------------------------|--------------------|---------------------------------|
D|---------------------------------|--------------------|---------------------------------|
A|---------------------------------|--------------------|---------------------------------|
E|-----------------------------3---|-1---1----1---1-----|-------------------------1---3---|
B|---------------------------------|--------------------|---------------------------------|


G|------------------------|--------|--------|--------|--------|--------|--------|--------|
D|------------------------|--------|--------|--------|--------|--------|--------|--------|
A|-0---0----0---0-----0---|--------|--------|--------|--------|--------|--------|--------|
E|------------------------|--------|--------|--------|--------|--------|--------|--------|
B|------------------------|--------|--------|--------|--------|--------|--------|--------|


G|--------|--------|--------|--------|
D|--------|--------|--------|--------|
A|--------|--------|--------|--------|
E|--------|--------|--------|--------|
B|--------|--------|--------|--------|



Suggest correction
Creating personal tab
Creating personal tab
You can edit any tab online and save it as your Personal.

You can edit, replace or remove any tab part or add personal notes – all changes will be seen only by you.

Personal tabs can be accessed anytime from any device, even offline.
Learn more »
comments
print report bad tab
guest
You may want to rate the tab now too:
select rating
Wanna post a correction for this tab? Suggest correction