Oops, an error
Loading. Please wait.

Snow White Queen Tab

version 2
version 2

Whole song

Interactive

705 views 1 this week
3 commentsread comments
1 2 3 4 5
please rate
add to favorites
launch autoscroll
font size
0
reset
how to read this tab
guitar tuner
Tab Pro tools
  • play this tab
  • loop segment
  • change instrument
  • show fretboard
  • metronome
Autoscroll
slow
fast
+/-
esc
set tempo
stop
Contributor
Difficulty
Tuning
intermediate
D A D G B E
----------------------------------------------------------------------------
                            Snow White Queen - Evanescence
----------------------------------------------------------------------------
This is my very first tab...
hope you like it!!!;)

Tuning:Drop D

VERSE 1:
Synth loop w/effects 
N.C.

PRE-CHORUS(1st time only):
w/delay
*Chords implied
 *F                             *Am                     *F
e|--------------|---------------|---------|-------------|--------------|
B|5---------5---|5h6---6----6\8-|(8)------|(8)---6--5---|----------5---|
G|--------5---5-|----5----6-----|---------|-----------5-|--------5---5-|
D|--------------|---------------|---------|-------------|7-------------|
A|--------------|---------------|---------|-------------|--------------|
D|--------------|---------------|---------|-------------|--------------|
You'll never know the way your words have haunted me...
                   *Am           
e|----------------|-------------|-----------------|-----12-----12-----|
B|5h6---6-----6---|6\8--8--8--8-|8\10--10--10--10-|-------------------|
G|----5---5-5---5-|-------------|-----------------|14-------14-----14-|
D|----------------|-------------|-----------------|-------------------|
A|----------------|-------------|-----------------|-------------------|
D|----------------|-------------|-----------------|-------------------|
[..]ask these things of me                  You don't know me..  
 *F/A                *Am                                          -|
e|12\13—13-----13\15-|-----12-----12----|12\13----13-----13\15-|   | G  
B|-------------------|------------------|----------------------|   | T
G|-----------14------|-14------14----14-|------14-----14-------|   | R
D|-------------------|------------------|----------------------|   | 1
A|-------------------|------------------|----------------------|   |
D|-------------------|------------------|----------------------|   |
                       no one ever.....                            |
e|------------------------------------|------------------------|   | G
B|------------------------------------|------------------------|   | T 
G|------------------------------------|------------------------|   | R
D|------------------------------------|------------x-----------|   | 2
A|------------------------------------|6-6-6-5--3--x-----------|   |
D|----------------------------------/7|------------------------|  _|


CHORUS(gtr w/Dist.):                            
e|-------------|----------------|-----------------|---------------|
B|-------------|----------------|-----------------|---------------|
G|-------------|----------------|-----------------|---------------|
D|-------------|----------------|-----------------|---------------|
A|7-7--7-7-----|8-8-8-8--xx8\10-|7-7--7-7--7------|8-8-8-8--xx8\7-|
D|7-7--7-7---/7|---------xx-----|7-7--7-7--7---/7-|---------xx----|  

                                                                     
e|-------------|----------------|-------------|--------------|
B|-------------|----------------|-------------|--------------|
G|-------------|----------------|-------------|--------------|
D|-------------|----------------|-------------|------------x-|
A|7-7--7-7-----|8-8-8-8--xx8\10-|7-7--7-7-----|6-6-6-5--3--x-|
D|7-7—7-7---/7-|---------xx-----|7-7--7-7---/7|--------------|

1._____________________
|          Grad.bend
e|-------|----------------|
B|-------|----------------|
G|-------|-------------14-|
D|-------|----------------|
A|-------|----------------|
D|7------|(7)-------------|



VERSE(2ND time only):
  *A7
e|12----12--------|13----13---------|15----15--------|13----13--------|
B|----------------|-----------------|----------------|----------------|
G|----14-------14-|---14--------14--|---14-------14--|----14------14--|
D|----------------|-----------------|----------------|----------------|
A|----------------|-----------------|----------------|----------------|
D|----------------|-----------------|----------------|----------------|


PRE-CHORUS(2ND TIME ONLY):
 *F                            *Am
e|---------------|------------|---------------|--------------|
B|---------------|------------|---------------|--------------|
G|--------0------|------------|----0---2----4-|(4)---5--4--0-|
D|----3-----3--2-|(2)-3-------|--2---2---2----|--------------|
A|--3---3--------|------------|0--------------|--------------|
D|3--------------|------------|---------------|--------------|
I can't escape the twisted way u think of me...
 *F
e|---------------|------------|
B|---------------|------------|
G|--------0------|------------|
D|----3-----3--2-|(2)-3-------|
A|--3---3--------|------------|
D|3--------------|------------|
 *Am                            N.C
e|---------------|-------------|--------|--------|
B|---------------|-------------|--------|--------|
G|----0---2----4-|(4)-7--7-----|--------|--------|
D|--2---2---2----|-------------|--------|--------|
A|0--------------|-------------|--------|--------|
D|---------------|-------------|--------|--------|
                                I don't sleep Say,

CHORUS


BRIDGE:
2.__________________________________________________________________________
|
 GTR 1 RHYTHM:
  E5
e|--------------|
B|--------------|
G|--------------|
D|--------------|
A|2-2-2-2-2---x-|
D|2-2-2-2-2---x-|
*GTR 1 cont.rhythm simile

 GTR 2(LEAD):
  E5            F5             G5                A5
e|-------------|--------------|-----------------|--------------|
B|-------------|--------------|-----------------|--------------|
G|-------------|--------------|-----------------|--------------|
D|-------------|--------------|-----------------|--------------|
A|7---7--5-7\8-|8---8--7-8\10-|10---10--8-10\12-|12---14---15--|
D|-------------|--------------|-----------------|--------------|
                      I can't save your life_________[...]
  F5                 E5                 A5         A5
e|------------------|------------------|--------|--------------------------|
B|------------------|------------------|--------|--------------------------|
G|------------------|------------------|--------|--------------------------|
D|------------------|------------------|--------|--------------------------|
A|(15)---14---15-14-|(14)-----14-14\12-|12------|(12)--10-10\12-12\10-10\7-|
D|------------------|------------------|--------|--------------------------|
  E5            F5             G5                A5
e|-------------|--------------|-----------------|------------------|
B|-------------|--------------|-----------------|------------------|
G|-------------|--------------|-----------------|------------------|
D|-------------|--------------|-----------------|------------------|
A|7---7--5-7\8-|8---8--7-8\10-|10---10--8-10\12-|12---12--\10-10\8-|
D|-------------|--------------|-----------------|------------------|
  F5            D5          E5          E5      tremolo bar
e|-------------|-----------|-----------|--------------|
B|-------------|-----------|-----------|--------------|
G|-------------|-----------|-----------|--------------|
D|-------------|-----------|-----------|-9---9---(9)\-|
A|8---8--8-8\5-|5---5---5--|7---7---7--|---7----------|
D|-------------|-----------|-----------|--------------|
      [...]and stare as my world divides_____
CHORUS:
                 N.C.                        N.C.
e|--------------|-----------|--------------|-----------------|
B|--------------|-----------|--------------|-----------------|
G|--------------|-----------|--------------|-----------------|
D|--------------|-----------|--------------|-----------------|
A|7-7--7-7------|-----------|7-7--7-7------|-----------------|
D|7-7--7-7---7\-|-----------|7-7--7-7---7\-|-----------------|
You__________ belong to me____          My snow white queen

Continue with CHORUS(meas.5-8 only)and then again
CHORUS


e|---------------|----------------|    |---------|
B|---------------|----------------|    |---------|
G|---------------|----------------|    |---------|
D|---------------|----------------|(X3)|---------|
A|3-----------/6-|(6)-6-6-5--3--3-|    |---------|
D|--7--7-7-------|----------------|    |7--------|
[...]             All I want is you...

Outro:
N.C.
Synth loop w/effects

|- 8th note
|--4th note etc..
| /  slide up
| \  slide down
| h  hammer-on
| p  pull-off
| ~  vibrato
| +  harmonic
| x  Mute note
============================================================================

comments
We did not receive enough feedback on this tab! Please rate:
print report bad tab
1 2 3 4 5
3 comments total.
0 reply
Ev_Fan14 wrote on July 21 2008, 12:09 pm

You basically copied my tab and just rearranged it, and added the lyrics in..

0 reply
eternal_whisper wrote on July 21 2008, 12:14 pm

believe me EvFan14 I DID NOT copy your tab I didn't even know there was a tab for this song..I am sorry but this is the way I play it and i just tabbed it out..Sorry if you were led to believe that I could copy anyone's tab...

0 reply
Ev_Fan14 wrote on July 21 2008, 02:11 pm

haha that's ok.. after takin a closer look at i realised there are some differences. sorry for jumping to conclusions.

on a different note, good job!

I want to post or [tab]
guest
You may want to rate the tab now too:
select rating
Please do not post tabs as comments. Select "correction" instead!