Oops, an error
Loading. Please wait.

Solitude Tab

version 3
version 3

Whole song

Interactive

15,972 views 27 this week
1 commentread comment
1 2 3 4 5
accurate
x 9
add to favorites
launch autoscroll
font size
0
reset
how to read this tab
guitar tuner
Autoscroll
slow
fast
+/-
esc
set tempo
stop
Help us to improve Ultimate-Guitar.com Take our survey!
×
this is a beautiful song by evanesence. ive tabbed it to the best of my ability.
im pretty sure its accurate.

Standard Tuning

Intro:
 |---------------------------0---------------|
 |--------------------0----------------------|
 |-----0---0-----0--------0----0-------------|
 |----0---0-----0----0---0------2------------|
 |-2/3---2---2-3----3---2----3---------------|
 |-------------------------------------------|

Verse 1:
 |--0-------------------0-------------------------|     
 |--------0-------0---0---0-----------------------|     
 |----0--------0----0---------0----0---0-----0----|
 |--2--2--1---1---0---------0-----0---0-----0-----|     
 |----------------------4--------3---2---2-3------|    
 |------------------------------------------------|4 times.

Chours 1:
 |----------------------0--------------------------0---| 
 |-------1---------------0-------3----1-0--------------| 
 |----0---0--0------0-----0-----0-0------0------0------| 
 |---2-2-----------2-2-----2---2---2------2----2-2-----| 
 |--3-------3-----------------3------------------------| 
 |---------------0---------------------------0---------|2 times.


 |-0--------------------0---------------------------------0-----|
 |--------0-------0---0---0------------------------0------------| 
 |---0---------0----0---------0----0---0-----0---------0----0---| 
 |-2---2--1---1---0---------0-----0---0-----0-----0---0------2--| 
 |----------------------4--------3---2---2-3-----3---2----3-----|
 |--------------------------------------------------------------|

Verse 2:
 |--0-------------------0-------------------------|     
 |--------0-------0---0---0-----------------------|     
 |----0--------0----0---------0----0---0-----0----|
 |--2--2--1---1---0---------0-----0---0-----0-----|     
 |----------------------4--------3---2---2-3------|    
 |------------------------------------------------|4 times.

Chours 2:
 |----------------------0--------------------------0---| 
 |-------1---------------0-------3----1-0--------------| 
 |----0---0--0------0-----0-----0-0------0------0------| 
 |---2-2-----------2-2-----2---2---2------2----2-2-----| 
 |--3-------3-----------------3------------------------| 
 |---------------0---------------------------0---------|3 times.

 *this is the point in the song where she sings
                "I can't stay here another night..."
                            just play the chords C and Em*

 |---------------------|
 |---------------------|
 |-------0---0-----0---|
 |------0---0-----0----|
 |--2--3---2---2-3-----|
 |---------------------|

 |-------------------------------------------0----------------0-|
 |----0-----------------------0---0-------0-----------0---0--0--|
 |--------0-----0-----0---0----0-0-0-0-----0------0--0--0---0---|
 |---0---0-----0-----0---0------2---2---2---2----2--2----2------|
 |--3---2---2-3-----3---2-----------------------3---------------|
 |--------------------------------------------------------------|

*the rest of the song, just play the chords C and Em*
I hope this helped all you faithful evanesence fans out there! if ya wanna chat, my
aim is: scorpiosuccubus.
Suggest correction
comments
print report bad tab
1 comment total.
0 reply
charleyem 21 wrote on March 6 2013, 03:46 pm

This is so beautiful :) thanks a lot!

guest
You may want to rate the tab now too:
select rating
Wanna post a correction for this tab? Suggest correction