Oops, an error
Loading. Please wait.

Solitude Tab

version 4
version 4

Whole song

Interactive

21,553 views 3 this week
4 commentsread comments
1 2 3 4 5
x 17
add to favorites
launch autoscroll
font size
0
reset
how to read this tab
guitar tuner
Autoscroll
slow
fast
+/-
esc
set tempo
stop
Help us to improve Ultimate-Guitar.com Take our survey!
×
Author
Evanescence
"Solitude"
Tabbed by Aries_Mata05, Chile

Intro: ... 2 3 4

    + · + · + · + · + · + · + · + · + · + · + · + · + · + · + · +
E|--------------------------------------------------0------|
B|--------------------------------------0------------------|
G|------0-----0---------0---------------------0-------0----|
D|----0-----0---------0---------------0-----0-----------2--|
A|--3-----2-------2-3---------------3-----2---------3------|
E|---------------------------------------------------------|

Verso 1:

    + · + · + · + · + · + · + · + · + · + · + · + · + · + · + · +
E|--0---------------------0--------------------------------|
B|--------0-------------0----------------------------------|
G|------------0---0---0-------0---0-----0-----0---------0--| (x4)
D|------2-1-----1---0-----------0-----0-----0---------0----|
A|----2-------------------4---------3-----2-------2-3------|
E|--0------------------------------------------------------|

Coro 1:

+ · + · + · + · + · + · + · + · + · + · + · + · + · + · + · + · + ·
E|--------------------------0-------------------------------0--------|
B|----------1-----------0-----------------3-----1p0-----0---0--------|
G|------0-----0---0---0---0-----2-0-----0---0------0------0-0--------|
D|----2---2-----2---2---------2-------2-------2-----2-----------2-0--|
A|--3---------------2---------------3-----------------2--------------|
E|------------------0------------------------------------------------|

    + · + · + · + · + · + · + · + · + · + · + · + · + · + · + · + · 
E|--------------------------0-----------------------0-----------------|
B|--------1-----1-------0-----0-----------3-----1p0-------0-----------|
G|------0---0-------------0-----0-------0---0------0----------0---0---|
D|----2-------2---2-2-------------2---2-------2---------2-1-----1-----|
A|--3-----------------2-------------3-----------------2---------------|
E|--------------------------------------------------0-----------------|

    + · + · + · + · + · + · + · + · + · + · + · + · + · + · + · + · + · + · + · +
E|--------0---------------------------------------------------------0-------|
B|------0-----------------------------------------------0-------------------|
G|----0-------0---0-----0-----0---------0---------------------0-------0-----|
D|--0-----------0-----0-----0---------0---------------0-----0-----------2---|
A|--------4---------3-----2-------2-3---------------3-----2---------3-------|
E|--------------------------------------------------------------------------|

Verso 2:
    + · + · + · + · + · + · + · + · + · + · + · + · + · + · + · +
E|--0---------------------0---------------------------------|
B|--------0---0---------------------------------------------|
G|----------0---0-----0-0---2---0-------0-----0---------0---|
D|------2-1-------1-0---0-------------0-----0-5-------0-----|
A|----2-------------------4---------3-----2-------2-3-------|
E|--0-------------------------------------------------------|

    + · + · + · + · + · + · + · + · + · + · + · + · + · + · + · + 
E|--0---------------------0---------------------------------|
B|--------0---0---0-----0-----------------------------------|
G|----------0---0-----0-----2-----0-----0-----0---------0---|
D|------2-1-----1---0-----------0-----0-----0---------0-----|
A|----2-------------------4---------3-----2-------2-3-------|
E|--0-------------------------------------------------------|

   + · + · + · + · + · + · + · + · + · + · + · + · + · + · + · +
E|-0---------------------0----------------------------------|
B|---0-----0---0-------0---------0--------------------------|
G|-----0-----0---0---0-----2-0-2-------0-------0-------0----|
D|-------1-----1---0-----------------0-----0-5-------5------|
A|---2-------------------4---------3-----2-------2-3--------|
E|-0--------------------------------------------------------|

   + · + · + · + · + · + · + · + · + · + · + · + · + · + · + · +
E|-0---------------------0----------------------------------|
B|---0-----0---0-------0------------------------------------|
G|-----0-----0---0---0-----2-0-2-0-----0-----0---------0----|
D|-------1-----1---0-----------0-----0-----0---------0------|
A|---2-------------------4---------3-----2-------2-3--------|
E|-0--------------------------------------------------------|

Coro 2:

   + · + · + · + · + · + · + · + · + · + · + · + · + · + · + · + ·
E|-------------------------0-------------------------------0-------|
B|---------1-----------0-----------------3-----1p0-----0---0-------|
G|-----0-----0---0-------0-------------0---0-------------0---------|
D|---2---2-----2---2-----------2-0---4-------4-----2-----------2-0-|
A|-3-----------------2-------2-----3--------------2--2-------2-----|
E|-----------------------------------------------------------------|

   + · + · + · + · + · + · + · + · + · + · + · + · + · + · + · + ·
E|-----------------3-----2---------------------------------0-------|
B|-------1-----------------0-------------3-----1p0-----0---0-------|
G|-----0---0---0-------0---------------0-----0-----------0-0---0---|
D|---2-------2---0-2-2---2-----2-0---4-----4-------2---------------|
A|-3---------------2---------2-----3--------------2--2-------------|
E|-----------------0-----------------------------------------------|

   + · + · + · + · + · + · + · + · + · + · + · + · + · + · + · + ·
E|-------------0---------0---------------------------------0-------|
B|-------1-------0-----0-----0-----------3-----1p0---------0-0-----|
G|-----0---0---------0-----0-----------0-----0----0------0-------0-|
D|---2-------2-----2-----------2-0---4-----4-----------2-------2---|
A|-3-------------------------------3-----------------2-------2-----|
E|-------------------------------------------------0---------------|

Interlude:
   + · + · + · + · + · + · + · + · + · + · + · + · + · + · + · + · + · + · + · +
E|-----------------------------------------------------------------------
B|-1---------------3-----------------------------------------------------
G|-0---------------2-------------------------2p0-2-2h4-0-----0---------0-
D|-2---------------0---------------------------------0-----0---------0---
A|-3---------------------------------------2-------3-----2-------2-3-----
E|-----------------------------------------------------------------------

   + · + · + · + · + · + · + · + · + · + · + · + · + · + · + · + · + · + · + · + ·  
E|---------------------------------------------|---------------------------0--------|
B|-----0---------------------------------------|---0-------0-------0---0-------0----|
G|-----------0---------0---------------0-----0-|-----0---0-------0---5-------0---0--|
D|---0-----0---------0---------------0-----0---|-------2-------2--------------------|
A|-3-----2-------2-3---------------3-----2-----|---3---------3-------3----3---------|
E|---------------------------------------------|------------------------------------|

   + · + · + · + · + · + · + · + · 
E|-----------------0-----------0-------|
B|-----------0---0-------0-0-----------|
G|-----0-----0--------12(nh)-----------|
D|---2-2---2---------12(nh)------------|
A|-3-----3-----3-----------------------|
E|-------------------------------------|

Coro :
  C		Em				Chords: C   032010
Ooh, Can't you see					C9  032030
      C  C9  C    Em					Em  022000
All along it was me
C		    Em
How can you be so blind
	C C9     C         Em
As to see right through me

     C	      Em
And Ooh, Solitude,
	   C    C9 C	Em
Still with me is only you
C	  Em
Ooh, Solitude,
	  C  C9  C	Em
I can't stay away from you

C	  Em
Ooh, Solitude,
	 C     C9  C	Em
Forever me and forever you
C         Em
Ooh, Solitude,
      C  C9  C   Em
Only you, only true

C Em C C9 C Em


e-mail: aries_mata03@hotmail.com
Suggest correction
comments
print report bad tab
4 comments total. Showing first comments.
0 reply
laofmoonster 10 Jun 15, 2009 02:51 PM

Amazing song, perfect tab

0 reply
hiv-i-hegnet 10 Aug 18, 2009 09:16 AM

great tab its flawless! thank you :)

0 reply
aliceskatergirl 37 Nov 28, 2009 09:17 AM

great tab ^-^

guest
You may want to rate the tab now too:
select rating
Wanna post a correction for this tab? Suggest correction