Oops, an error
Loading. Please wait.

Sweet Sacrifice bass

version 2
version 2

Whole song

Interactive

127 views 3 this week
no commentswrite comment
1 2 3 4 5
x 4
add to favorites
×
Save as Personal and add changes to this tab that will be seen only by you. Learn more ›
×
You can save this tab as Personal to edit and correct it or add notes. All changes will be seen only by you. Learn more »
launch autoscroll
font size
0
reset
guitar tuner
edit
Autoscroll
slow
fast
+/-
esc
set tempo
stop
Title: Sweet Sacrifice
Artist: Evanescence
Album: The Open Door
Tuning: Drop C# (C# G# C# F#)
Tab Author: Pearce Hamblin (The Bass Diaries)

   Intro/Verse 1
F#|--------|--------|--------|--------|-------------------------------------------------|
C#|--------|--------|--------|--------|-------------------------------------------------|
G#|--------|--------|--------|--------|-------------------------------------------------|
C#|--------|--------|--------|--------|-5--5--5-----------5--5--5--5--5-----5--5--5--5--|


F#|-------------------------------------------------|-------------------------------------------------|
C#|-------------------------------------------------|-------------------------------------------------|
G#|-------------------------------------------------|-------------------------------------------------|
C#|-5--5--5-----------------------------------------|-1--1--1-----------1--1--1--1--1-----1--1--1--1--|

                                                     Pre-Chorus 1
F#|-------------------------------------------------|-------------------------------------------------|
C#|-------------------------------------------------|-------------------------------------------------|
G#|-------------------------------------------------|-------------------------------------------------|
C#|-1--0--0-----------------------------------------|-5-----------------5-----------------------------|


F#|-------------------------------------------------|-------------------------------------------------|
C#|-------------------------------------------------|-------------------------------------------------|
G#|-------------------------------------------------|-------------------------------------------------|
C#|-------5-----------------------3-----------------|-5-----------------5-----------------------------|


F#|-------------------------------------------------|-------------------------------------------------|
C#|-------------------------------------------------|-------------------------------------------------|
G#|-------------------------------------------------|-------------------------------------------------|
C#|-------5-----------------------3-----3-----3-----|-5-----------------5-----------------------------|


F#|-------------------------------------------------|-------------------------------------------------|
C#|-------------------------------------------------|-------------------------------------------------|
G#|-------------------------------------------------|-------------------------------------------------|
C#|-------5-----------------------3-----------------|-5-----------------5-----------------------------|


F#|-------------------------------------------------|-------------------------------------------------|
C#|-------------------------------------------------|-------------------------------------------------|
G#|-------------------------------------------------|-------------------------------------------------|
C#|-------5-----------------------3-----3-----3-----|-5--5--3--3--------------------------------3--3--|


F#|-------------------------------------------------|-------------------------------------------------|
C#|-------------------------------------------------|-------------------------------------------------|
G#|-------------------------------------------------|-------------------------------------------------|
C#|-5--5--3--3--------3--3--5--5--3--3--------3--3--|-5--5--3--3--------------------------------3--3--|

                                                     Chorus 1
F#|-------------------------------------------------|-------------------------------------------------|
C#|-------------------------------------------------|-------------------------------------------------|
G#|-------------------------------------------------|-------------------------------------------------|
C#|-5--5--3--3--------3--3--5--5--3--3--------3--3--|-5--5--3--3--6-----5-----------------------3--3--|


F#|-------------------------------------------------|-------------------------------------------------|
C#|-------------------------------------------------|-------------------------------------------------|
G#|-------------------------------------------------|-------------------------------------------------|
C#|-5--5--3--3--6-----5-----3--3--3-----3--3--3-----|-5--5--3--3--6-----5-----------------------3--3--|


F#|-------------------------------------------------|-------------------------------------------------|
C#|-------------------------------------------------|-------------------------------------------------|
G#|-------------------------------------------------|-------------------------------------------------|
C#|-5--5--3--3--6-----5-----1--1--1-----1--1--1-----|-5--5--3--3--6-----5-----------------------3--3--|


F#|-------------------------------------------------|-------------------------------------------------|
C#|-------------------------------------------------|-------------------------------------------------|
G#|-------------------------------------------------|-------------------------------------------------|
C#|-5--5--3--3--6-----5-----3--3--3-----3--3--3-----|-5--5--3--3--6-----5-----------------------3--3--|


F#|-------------------------------------------------|--------|
C#|-------------------------------------------------|--------|
G#|-------------------------------------------------|--------|
C#|-5--5--3--3--6-----5-----1--1--1-----1--1--1-----|--------|

   Verse 2
F#|-------------------------------------------------|-------------------------------------------------|
C#|-------------------------------------------------|-------------------------------------------------|
G#|-------------------------------------------------|-------------------------------------------------|
C#|-5--5--5-----------5--5--5--5--5-----5--5--5--5--|-5--5--5-----5-----------7-----------8-----------|


F#|-------------------------------------------------|-------------------------------------------------|
C#|-------------------------------------------------|-------------------------------------------------|
G#|-------------------------------------------------|-------------------------------------------------|
C#|-1--1--1-----------1--1--1--1--1-----1--1--1--1--|-1--0-----0-----0--1--0-----0--1--0--1-----------|


F#|-------------------------------------------------|-------------------------------------------------|
C#|-------------------------------------------------|-------------------------------------------------|
G#|-------------------------------------------------|-------------------------------------------------|
C#|-5--5--5-----------5--5--5--5--5-----5--5--5--5--|-5--5--5-----5-----------7-----------8-----------|


F#|-------------------------------------------------|-------------------------------------------------|
C#|-------------------------------------------------|-------------------------------------------------|
G#|-------------------------------------------------|-------------------------------------------------|
C#|-1--1--1-----------1--1--1--1--1-----1--1--1--1--|-1--0-----0-----0--1--0-----0--1--0--1--------1--|

   Pre-Chorus 2
F#|-------------------------------------------------|-------------------------------------------------|
C#|-------------------------------------------------|-------------------------------------------------|
G#|-------------------------------------------------|-------10----------8-----------------------------|
C#|-5--------------------5--5--------------------5--|-5-----------------------------10----------8-----|


F#|-------------------------------------------------|-------------------------------------------------|
C#|-------------------------------------------------|-------8-----------7-----------------------------|
G#|-------------------------------------------------|-------------------------------8-----------------|
C#|-5--------------------5--5--------------------5--|-5-----------------------------------------3-----|


F#|-------------------------------------------------|-------------------------------------------------|
C#|-------------------------------------------------|-------------------------------------------------|
G#|-------------------------------------------------|-------10----------8-----------------------------|
C#|-5--------------------5--5--------------------5--|-5-----------------------------10----------8-----|


F#|-------------------------------------------------|-------------------------------------------------|
C#|-------------------------------------------------|-------8-----------10----------------------------|
G#|-------------------------------------------------|-------------------------------8-----------------|
C#|-5--------------------5--5--------------------5--|-5-----------------------------------------------|


F#|-------------------------------------------------|-------------------------------------------------|
C#|-------------------------------------------------|-------------------------------------------------|
G#|-------------------------------------------------|-------------------------------------------------|
C#|-5--5--3--3--------------------------------3--3--|-5--5--3--3--------3--3--5--5--3--3--------3--3--|

   Chorus 2
F#|-------------------------------------------------|-------------------------------------------------|
C#|-------------------------------------------------|-------------------------------------------------|
G#|-------------------------------------------------|-------------------------------------------------|
C#|-5--5--3--3--6-----5-----------------------3--3--|-5--5--3--3--6-----5-----3--3--3-----3--3--3-----|


F#|-------------------------------------------------|-------------------------------------------------|
C#|-------------------------------------------------|-------------------------------------------------|
G#|-------------------------------------------------|-------------------------------------------------|
C#|-5--5--3--3--6-----5-----------------------3--3--|-5--5--3--3--6-----5-----1--1--1-----1--1--1-----|


F#|-------------------------------------------------|-------------------------------------------------|
C#|-------------------------------------------------|-------------------------------------------------|
G#|-------------------------------------------------|-------------------------------------------------|
C#|-5--5--3--3--6-----5-----------------------3--3--|-5--5--3--3--6-----5-----3--3--3-----3--3--3-----|


F#|-------------------------------------------------|-------------------------------------------------|
C#|-------------------------------------------------|-------------------------------------------------|
G#|-------------------------------------------------|-------------------------------------------------|
C#|-5--5--3--3--6-----5-----------------------3--3--|-5--5--3--3--6-----5-----1--1--1-----1--1--1-----|

   Bridge
F#|-------------------------------------------------|-------------------------------------------------|
C#|-------------------------------------------------|-------------------------------------------------|
G#|-------------------------------------------------|-------------------------------------------------|
C#|-3--5--5--5--5-----5--5--5--6--6--6--6-----6--6--|-6--8--8--8--8-----8--8--8--10-10-10-10----10-10-|


F#|-------------------------------------------------|-------------------------------------------------|
C#|-------------------------------------------------|-------------------------------------------------|
G#|-------------------------------------------------|-------------------------------------------------|
C#|-3--5--5--5--5-----5--5--5--6--6--6--6-----6--6--|-6--8--8--8--8-----8--8--8--10-10-10-10----10-10-|


F#|-------------------------------------------------|-------------------------------------------------|
C#|-------------------------------------------------|-------------------------------------------------|
G#|-------------------------------------------------|-------------------------------------------------|
C#|-3--5--5--5--5-----5--5--5--6--6--6--6-----6--6--|-6--8--8--8--8-----8--8--8--10-10-10-10----10-10-|


F#|-------------------------------------------------|-------------------------------------------------|
C#|-------------------------------------------------|-------------------------------------------------|
G#|-------------------------------------------------|-------------------------------------------------|
C#|-3--5--5--5--5-----5--5--5--6--6--6--6-----6--6--|-6--8--8--8--8-----8--8--8--10-10-10-10----10-10-|

                                                     Chorus 3/Outro
F#|-------------------------------------------------|-------------------------------------------------|
C#|-------------------------------------------------|-------------------------------------------------|
G#|-6--------6--------6--------6-----6--5--5--------|-------------------------------------------------|
C#|-------------------------------------------3--3--|-5--5--3--3--6-----5-----------------------3--3--|


F#|-------------------------------------------------|-------------------------------------------------|
C#|-------------------------------------------------|-------------------------------------------------|
G#|-------------------------------------------------|-------------------------------------------------|
C#|-5--5--3--3--6-----5-----3--3--3-----3--3--3-----|-5--5--3--3--6-----5-----------------------3--3--|


F#|-------------------------------------------------|-------------------------------------------------|
C#|-------------------------------------------------|-------------------------------------------------|
G#|-------------------------------------------------|-------------------------------------------------|
C#|-5--5--3--3--6-----5-----1--1--1-----1--1--1-----|-5--5--3--3--6-----5-----5--5--5-----5--5--3-----|


F#|-------------------------------------------------|-------------------------------------------------|
C#|-------------------------------------------------|-------------------------------------------------|
G#|-------------------------------------------------|-------------------------------------------------|
C#|-5--5--3--3--6-----5-----3--3--3-----3--3--3-----|-5--5--3--3--6-----5-----5--5--5-----5--5--3-----|


F#|-------------------------------------------------|
C#|-------------------------------------------------|
G#|-------------------------------------------------|
C#|-5--5--3--3--6-----5--------1--1--1-----1--1-----|




            
            
Suggest correction
Creating personal tab
Creating personal tab
You can edit any tab online and save it as your Personal.

You can edit, replace or remove any tab part or add personal notes – all changes will be seen only by you.

Personal tabs can be accessed anytime from any device, even offline.
Learn more »
comments
print report bad tab
guest
You may want to rate the tab now too:
select rating
Wanna post a correction for this tab? Suggest correction