Oops, an error
Loading. Please wait.

Taking Over Me Bass Tab

version 2
version 2

Whole song

Interactive

2,727 views 1 this week
no commentswrite comment
1 2 3 4 5
1 last vote to show rating
add to favorites
launch autoscroll
font size
0
reset
guitar tuner
Autoscroll
slow
fast
+/-
esc
set tempo
stop
Help us to improve Ultimate-Guitar.com Take our survey!
×
Author
Difficulty
INTRO:
G|-------------------------------------------------|
D|-------------------------------------------------|
A|-------------------------------------------------|
E|-5-5--55-55--5-5--55-55--1-1--11-11--0-0--00-00--|

VERSE:
TACIT UNTIL (0:42)
G|-------------------------------------------------|
D|-------------------------------------------------|
A|-------------------------------------------------|
E|-5-5--55-55--5-5--55-55--1-1--11-11--0-0--00-00--|

CHORUS:
G|------------------------------------------------------------|
D|------------------------------------------------------------|
A|------------------------------------------------------------|x2
E|-5-5-5-5-5-5-5-3-3-3-1--1-1-1-5-5-5-5-5-5-5-0-0-0-1--1-1-1--|

VERSE:
G|-------------------------------------------------|
D|-------------------------------------------------|
A|-------------------------------------------------|x2
E|-5-5--55-55--5-5--55-55--1-1--11-11--0-0--00-00--|

CHORUS:
G|------------------------------------------------------------|
D|------------------------------------------------------------|
A|------------------------------------------------------------|x2
E|-5-5-5-5-5-5-5-3-3-3-1--1-1-1-5-5-5-5-5-5-5-0-0-0-1--1-1-1--|

BRIDGE:
G|------------------------------------------------------------------|
D|------------------------------------------------------------------|
A|------------------------------------------------------------------|
E|-1--1-1-1----x-x--1--1-1-1-------5-5-5-5-5-5-5-5-5-5-5-5-5-5-5----|

G|------------------------------------------------------------------|
D|------------------------------------------------------------------|
A|------------------------------------------------------------------|
E|-1--1-1-1----x-x--1--1-1-1-------0-0-0-0-0-0-0-0-0-0-0-0-0-0-0----|

CHORUS: TACIT THEN
G|------------------------------------------------------------|
D|------------------------------------------------------------|
A|------------------------------------------------------------|x4
E|-5-5-5-5-5-5-5-3-3-3-1--1-1-1-5-5-5-5-5-5-5-0-0-0-1--1-1-1--|

OUTRO
G|------------------------|
D|------------------------|
A|------------------------|
E|-5-5-5-5-5-5-5-3-3-3-1--|
Suggest correction
Give kudos to tab author, rate the tab!
1 2 3 4 5
comments
print report bad tab
guest
You may want to rate the tab now too:
select rating
Wanna post a correction for this tab? Suggest correction