Oops, an error
Loading. Please wait.

The Change Bass Tab

version 1
version 1

Whole song

Interactive

1,468 views 6 this week
no commentswrite comment
1 2 3 4 5
excellent!
x 2
add to favorites
launch autoscroll
font size
0
reset
guitar tuner
Tab Pro tools
  • play this tab
  • loop segment
  • change instrument
  • show fretboard
  • metronome
Autoscroll
slow
fast
+/-
esc
set tempo
stop
Difficulty
Tuning
novice
C# G# C# F# A# D#
Artist: Evanescence
Title: The Change
Album: Evanescence

Tuning: C# G# C# F#

Tabbed by: Legend Ivanhoe (MrKarate9)

Intro
You can play the Bass pedal part "."(paused note)
F#|-----------------------------------------------------------------|
C#|-----------------------------------------------------------------|
G#|-----------------------------------------------------------------|
C#|--7.-7.-7.---7.-7.----7.-7.--------------------------------------|

F#|-----------------------------------------------------------------|
C#|-----------------------------------------------------------------|
G#|-----------------------------------------------------------------|
C#|--7.-7.-7.---7.-7.-----------------------------------------------|

The Real Bass line
Verse

F#|-----------------------------------------------------------------|
C#|------------------------3----------------------------------------|
G#|------------------0-3-0--0-3-------------------------------------|
C#|--7.-7.-7.---7.\-------------------------------------------------|x2

F#|-----------------------------------------------------------------|
C#|------------------------3----------------------------------------|
G#|------------------0-3-0--0-3-------------------------------------|
C#|--3.-3.-3.---3.\-------------------------------------------------|x2

F#|-----------------------------------------------------------------|
C#|------------------------3----------------------------------------|
G#|------------------0-3-0--0-3-------------------------------------|
C#|--7.-7.-7.---7.\-------------------------------------------------|x2


F#|-----------------------------------------------------------------|
C#|------------------------3-----------------------------3----------|
G#|------------------0-3-0--0-3--------------------0-3-0---0--------|
C#|--3.-3.-3.---3.\----------------3.-3.-3.---3.\-------------------|

Pre-chorus

F#|-----------------------------------------------------------------|
C#|-----------------------------------------------------------------|
G#|-5-5-5-5-5-5-5-5-----------------0-0-0-0-0-0-0-0-----------------|
C#|-----------------5-5-5-5-5-5-5-5-----------------3-3-3-3-3-3-3-3-|


F#|-----------------------------------------------------------------|
C#|-----------------------------------------------------------------|
G#|-5-5-5-5-5-5-5-5-------------------------------------------------|
C#|-----------------5-5-5-5-5-5-5-5---------------------------------|

Chorus

F#|-----------------------------------------------------------------|
C#|-----------------------------------------------------------------|
G#|---------------0--0-0---------------0-0--2-2-2-2--3-3-3-3--------|
C#|-3--3-3-0--0-0--------3--3-3-0--0-0------------------------------|

F#|-----------------------------------------------------------------|
C#|-----------------------------------------------------------------|
G#|---------------0--0-0--------------------------------------------|
C#|-3--3-3-0--0-0--------3-X-3--0-----------------------------------|

Pre-verse

F#|-----------------------------------------------------------------|
C#|-----------------------------------------------------------------|
G#|-----------------------------------------------------------------|
C#|-7-7-7-7-7-7-7-7-7-7-7-7-7-7-7-7-7-7-7-7-7-7-7-7-7-7-7-7-7-7--7\-|

Verse

F#|-----------------------------------------------------------------|
C#|------------------------3----------------------------------------|
G#|------------------0-3-0--0-3-------------------------------------|
C#|--7.-7.-7.---7.\-------------------------------------------------|x2

F#|-----------------------------------------------------------------|
C#|------------------------3----------------------------------------|
G#|------------------0-3-0--0-3-------------------------------------|
C#|--3.-3.-3.---3.\-------------------------------------------------|x2

F#|-----------------------------------------------------------------|
C#|------------------------3----------------------------------------|
G#|------------------0-3-0--0-3-------------------------------------|
C#|--7.-7.-7.---7.\-------------------------------------------------|x2


F#|-----------------------------------------------------------------|
C#|------------------------3-----------------------------3----------|
G#|------------------0-3-0--0-3--------------------0-3-0---0--------|
C#|--3.-3.-3.---3.\----------------3.-3.-3.---3.\-------------------|

Pre-chorus

F#|-----------------------------------------------------------------|
C#|-----------------------------------------------------------------|
G#|5-5-5-5-5-5-5-5------------------0-0-0-0-0-0-0-0-----------------|
C#|-----------------5-5-5-5-5-5-5-5-----------------3-3-3-3-3-3-3-3-|


F#|-----------------------------------------------------------------|
C#|-----------------------------------------------------------------|
G#|5-5-5-5-5-5-5-5--------------------------------------------------|
C#|-----------------5-5-5-5-5-5-5-5---------------------------------|

Chorus

F#|-----------------------------------------------------------------|
C#|-----------------------------------------------------------------|
G#|---------------0--0-0---------------0-0--2-2-2-2--3-3-3-3--------|
C#|3--3-3-0--0-0--------3--3-3-0--0-0-------------------------------|

F#|-----------------------------------------------------------------|
C#|-----------------------------------------------------------------|
G#|---------------0--0-0--------------------------------------------|
C#|3--3-3-0--0-0--------3-X-3--0------------------------------------|

Bridge

F#|-----------------------------------------------------------------|
C#|-----------------------------------------------------------------|
G#|-----------------------------------------------------------------|
C#|-2-2---------2-2-2-2-------------2-2---------2-2-2-2-----\-------|

F#|-----------------------------------------------------------------|
C#|-----------------------------------------------------------------|
G#|3-3-3-3-3-3-3-3-3-3-3-3-3-3-3-3--0-0-0-0-0-0-0-0--5-5-5-5-5-5-5-5|
C#|-----------------------------------------------------------------|


F#|-----------------------------------------------------------------|
C#|-----------------------------------------------------------------|
G#|-----------------------------------------------------------------|
C#|2-2---------2-2-2-2-------------2-2---------2-2-2-2-----\--------|

F#|-----------------------------------------------------------------|
C#|-----------------------------------------------------------------|
G#|3-3-3-3-3-3-3-3-5-5-5-5-5-5-5-5-2-2-2-2-2-2-2-2----2----2--------|
C#|-----------------------------------------------------------------|

F#|-----------------------------------------------------------------|
C#|-----------------------------------------------------------------|
G#|3-3-3-3-3-3-3-3-3-3-3-3-3-3-3-3/-5-5-5----5--5--5-5-5----5--5----|
C#|-----------------------------------------------------------------|

Chorus

F#|-----------------------------------------------------------------|
C#|-----------------------------------------------------------------|
G#|---------------0--0-0---------------0-0--2-2-2-2--3-3-3-3--------|
C#|3-x-3-0--0-0-----------3--3-3-0--0-0-----------------------------|

F#|-----------------------------------------------------------------|
C#|-----------------------------------------------------------------|
G#|---------------0--0-0---------------0-0--2-2-2-2--3-3-3-3--------|
C#|3--3-3-0--0-0---------3--3-3-0--0-0------------------------------|


F#|-----------------------------------------------------------------|
C#|-----------------------------------------------------------------|
G#|---------------0--0--2-2-2-2--3-3-3-3----------------------------|
C#|-3--3-3-0--0-0---------------------------------------------------|x3


F#|-----------------------------------------------------------------|
C#|-----------------------------------------------------------------|
G#|-----------------------------------------------------------------|
C#|-3-X-3--0--------------------------------------------------------|

The End.

Super easy song to play, it'll take you about five minutes to learn it,if you think any 
part of this tab it's wrong, i apologize, i'm not that good tabbing, this is my first time.
Farewell!!!

Legend Ivanhoe (MrKarate9)
comments
We did not receive enough feedback on this tab! Please rate:
print report bad tab
1 2 3 4 5
I want to post or [tab]
guest
You may want to rate the tab now too:
select rating
Please do not post tabs as comments. Select "correction" instead!