Oops, an error
Loading. Please wait.

The Change Tab

version 1
version 1

Whole song

Interactive

9,366 views 12 this week
1 commentread comment
1 2 3 4 5
excellent!
x 4
add to favorites
launch autoscroll
font size
0
reset
how to read this tab
guitar tuner
Autoscroll
slow
fast
+/-
esc
set tempo
stop
Help us to improve Ultimate-Guitar.com Take our survey!
×
Author
Difficulty
Tuning
novice
C# G# C# F# A# D#
Artist: Evanescence
Title: The Change
Album: Evanescence

Tuning: (low to high) Db Ab Db Gb Bb Eb

Tabbed by: FireReaverX


Intro
Eb|-----------------------------------------------------------------|
Bb|-----------------------------------------------------------------|
Gb|-----2-----2-----2---2-----2-2-2-----2-----2-----2---2-----2-2-2-|
Db|---5-----5-----5---5-----5---------5-----5-----5---5-----5-------|
Ab|-0-----0-----0---------0---------0-----0-----0---------0---------|
Db|-----------------------------------------------------------------|
    . . . . . . . . . . . . . . . . . . . . . . . . . . . . . . . .
 

Verse
Eb|-----------------------------------------------------------------|
Bb|-----------------------------------------------------------------|
Gb|-----2-----2-----2---2-----2-2-2-----2-----2-----2---2-----2-2-2-|
Db|---5-----5-----5---5-----5---------5-----5-----5---5-----5-------|
Ab|-0-----0-----0---------0---------0-----0-----0---------0---------|
Db|-----------------------------------------------------------------|
    . . . . . . . . . . . . . . . . . . . . . . . . . . . . . . . .

Eb|-----------------------------------------------------------------|
Bb|---------------------------3-3-3---------------------------3-3-3-|
Gb|-5---2-----2-----2---2---5-----------2-----2-----2---2---5-------|
Db|---5-----5-----5---5---------------5-----5-----5---5-------------|
Ab|-----------------------------------------------------------------|
Db|-------3-----3---------3---------3-----3-----3---------3---------|
    . . . . . . . . . . . . . . . . . . . . . . . . . . . . . . . .

Eb|-----------------------------------------------------------------|
Bb|-----------------------------------------------------------------|
Gb|-----2-----2-----2---2-----2-2-2-----2-----2-----2---2-----2-2-2-|
Db|---5-----5-----5---5-----5---------5-----5-----5---5-----5-------|
Ab|-0-----0-----0---------0---------0-----0-----0---------0---------|
Db|-----------------------------------------------------------------|
    . . . . . . . . . . . . . . . . . . . . . . . . . . . . . . . .

Eb|-----------------------------------------------------------------|
Bb|---------------------------3-3-3---------------------------------|
Gb|-5---2-----2-----2---2---5-----------2-----2-----2---2-----2-----|
Db|---5-----5-----5---5---------------5-----5-----5---5-----5-------|
Ab|-----------------------------------------------------------------|
Db|-------3-----3---------3---------3-----3-----3---------3---------|
    . . . . . . . . . . . . . . . . . . . . . . . . . . . . . .


Pre-chorus
Eb|-----------------------------------------------------------------|
Bb|-----------------------------------------------------------------|
Gb|-7-----7-----7-------------------2-----2-----2-------------------|
Db|-7-7-7-7-7-7-7---5-----5-----5---2-2-2-2-2-2-2---3-----3-----3---|
Ab|-5-5-5-5-5-5-5-5-5-5-5-5-5-5-5---0-0-0-0-0-0-0-0-3-3-3-3-3-3-3---|
Db|-----------------5-5-5-5-5-5-5-5-----------------3-3-3-3-3-3-3-3-|
    . . . . . . . . . . . . . . . . . . . . . . . . . . . . . . . .

Eb|---------------------------------|
Bb|---------------------------------|
Gb|-7-----7-----7-------------------|
Db|-7-7-7-7-7-7-7---5-----5-----5---|
Ab|-5-5-5-5-5-5-5-5-5-5-5-5-5-5-5---|
Db|-----------------5-5-5-5-5-5-5-5-|
    . . . . . . . . . . . . . . . .


Chorus
Eb|-----------------------------------------------------------------|
Bb|-----------------------------------------------------------------|
Gb|---------------------------------2-2-2-2-2-2-2-2-2-2-2-2-2-2-2-2-|
Db|-3-------3-3-3-0---------0-0-0---2-2-2-2-2-2-2-2-2-2-2-2-2-2-2-2-|
Ab|-3-------3-3-3-0---------0-0-0---0-0-0-0-0-0-0-0-0-0-0-0-0-0-0-0-|
Db|-3-------3-3-3-0---------0-0-0-----------------------------------|

Eb|-----------------------------------------------------------------|
Bb|-----------------------------------------------------------------|
Gb|---------------------------------2-2-2-2-2-2-2-2-2-4-4-4-4-6-6---|
Db|-3-------3-3-3-0---------0-0-0---2-2-2-2-2-2-2-2-2---------------|
Ab|-3-------3-3-3-0---------0-0-0---0-0-0-0-0-0-0-0-0-2-2-2-2-4-4---|
Db|-3-------3-3-3-0---------0-0-0-----------------------------------|

Eb|-----------------------------------------------------------------|
Bb|-----------------------------------------------------------------|
Gb|---------------------------------2-2-2-2-2-2-2-2-2-2-2-2-2-2-2-2-|
Db|-3-------3-3-3-0---------0-0-0---2-2-2-2-2-2-2-2-2-2-2-2-2-2-2-2-|
Ab|-3-------3-3-3-0---------0-0-0---0-0-0-0-0-0-0-0-0-0-0-0-0-0-0-0-|
Db|-3-------3-3-3-0---------0-0-0-----------------------------------|

Eb|---------------------------------|
Bb|---------------------------------|
Gb|---------------------------------|
Db|-3-------3-3-3-0-----------------|
Ab|-3-------3-3-3-0-----------------|
Db|-3-------3-3-3-0-----------------|


Transition
Eb|-----------------------------------------------------------------|
Bb|-----------------------------------------------------------------|
Gb|-----2-----2-----2---2-----2-2-2-----2-----2-----2---2---5*------|
Db|---5-----5-----5---5-----5---------5-----5-----5---5-----5*------|
Ab|-0-----0-----0---------0---------0-----0-----0---------0---------|
Db|-----------------------------------------------------------------|
    . . . . . . . . . . . . . . . . . . . . . . . . . . . .


Verse
Pre-chorus
Chorus


Bridge
Eb|-----------------------------------------------------------------|
Bb|-----------------------------------------------------------------|
Gb|-----------------------------------------------------------------|
Db|-2-2---------2-2-2-2-------------2-2---------2-2-2-2-----7-7-7-7-|
Ab|-2-2---------2-2-2-2-------------2-2---------2-2-2-2-----5-5-5-5-|
Db|-2-2---------2-2-2-2-------------2-2---------2-2-2-2-------------|

Eb|-----------------------------------------------------------------|
Bb|-----------------------------------------------------------------|
Gb|-5-5-5-5-5-5-5-5-5-5-5-5-5-5-5-5-2-2-2-2-2-2-2-2-7-7-7-7-7-7-7-7-|
Db|-5-5-5-5-5-5-5-5-5-5-5-5-5-5-5-5-2-2-2-2-2-2-2-2-7-7-7-7-7-7-7-7-|
Ab|-3-3-3-3-3-3-3-3-3-3-3-3-3-3-3-3-0-0-0-0-0-0-0-0-5-5-5-5-5-5-5-5-|
Db|-----------------------------------------------------------------|

Eb|-----------------------------------------------------------------|
Bb|-----------------------------------------------------------------|
Gb|-----------------------------------------------------------------|
Db|-2-2---------2-2-2-2-------------2-2---------2-2-2-2-------------|
Ab|-2-2---------2-2-2-2-------------2-2---------2-2-2-2-------------|
Db|-2-2---------2-2-2-2-------------2-2---------2-2-2-2-----/-\-\-\-|

Eb|-----------------------------------------------------------------|
Bb|-----------------------------------------------------------------|
Gb|-5-5-5-5-5-5-5-5-7-7-7-7-7-7-7-7-4-4-4-4-4-4-4-4-4-------4-------|
Db|-------------------------------------------------4-------4-------|
Ab|-3-3-3-3-3-3-3-3-5-5-5-5-5-5-5-5-2-2-2-2-2-2-2-2-2-------2-------|
Db|-----------------------------------------------------------------|

Eb|-----------------------------------------------------------------|
Bb|-----------------------------------------------------------------|
Gb|-5-5-5-5-5-5-5-5-5-5-5-5-5-5-5-5-7-7-7-7-\---7-7-7-7-\---7-7-7---|
Db|-5-5-5-5-5-5-5-5-5-5-5-5-5-5-5-5-7-7-7-7-\---7-7-7-7-\---7-7-7---|
Ab|-3-3-3-3-3-3-3-3-3-3-3-3-3-3-3-3-5-5-5-5-\---5-5-5-5-\---5-5-5---|
Db|-----------------------------------------------------------------|


Chorus


Note: The verse is not accurate. What I wrote is 
sort of a combination of the two guitars and the bass.

 
| /  slide up
| \  slide down
| h  hammer-on
| p  pull-off
| b  bend
| r  release bend
| v  vibrato
| *  natural harmonic
| x  mute string
| .  palm mute
===============================================================================
Suggest correction
comments
print report bad tab
1 comment total.
0 reply
silentskills 10 wrote on April 20 2012, 01:54 pm

What chords are they playing in the verse based on the notes?

guest
You may want to rate the tab now too:
select rating
Wanna post a correction for this tab? Suggest correction