Oops, an error
Loading. Please wait.

Thoughtless Tab

version 1
version 1

Whole song

Interactive

3,340 views 1 this week
3 commentsread comments
1 2 3 4 5
accurate
x 5
add to favorites
launch autoscroll
font size
0
reset
how to read this tab
guitar tuner
Tab Pro tools
  • play this tab
  • loop segment
  • change instrument
  • show fretboard
  • metronome
×
Best way to learn
"Thoughtless"
Autoscroll
slow
fast
+/-
esc
set tempo
stop
Contributor
Band- Evanescence
Song- Thoughtless

Tuning- dropped D

Pm- palm mute

Intro/ Verse
------------------------------------------------------------------------------------------|
------------------------------------------------------------------------------------------|
------------------------------------------------------------------------------------------|
-------5--------5  pm ------5--------5 pm --------7--------7 pm ------7-------8-8-8-8-----|
-------5--------5  pm ------5--------5 pm --------7--------7 pm ------7-------8-8-8-8-----|
---0---5--0-0---5  pm 0-0---5--0-0---5 pm-0-0-----7--0-0---7 pm 0-0---7-0-0 --8-8-8-8-----|

Pre Chorus

--------------------------------------------------------------|
--------------------------------------------------------------|
--------------------------------------------------------------|        X2
--5-5-5-6-6-6-4-4-4  pm  5-5-5-6-6-6-3-3-3-3-3-3-3-3----------|
--5-5-5-6-6-6-4-4-4  pm  5-5-5-6-6-6-3-3-3-3-3-3-3-3----------|
--5-5-5-6-6-6-4-4-4  pm  5-5-5-6-6-6-3-3-3-3-3-3-3-3----------|
I will let you figure out the strumming patterns for the chorus
Chorus

-----------------------------|
-----------------------------|
-----------------------------|
--7 ----10----5-----3--------|
--5 x8 -8 x8 -3 x8 -3--------|
--5 ----8 ----3-----1—-------|
And the fill when Amy is singing quietly

--------------------------------|
--------------------------------|
--------------------------------|
--------------------------------|
-----5----5----5----6-6-6-6-----|
----0—0-0—-0-0---0-0------------|
comments
print report bad tab
3 comments total.
0 reply
buckethead101 wrote on January 19 2005, 12:00 am

oh my god a korn cover

0 reply
nicegirl_0813 wrote on April 11 2005, 12:00 am

I love this song so much.. I like the way the band covered it..

0 reply
KoRnHead wrote on January 24 2006, 10:24 pm

the cover sucked the only good part was the guitar

I want to post or [tab]
guest
You may want to rate the tab now too:
select rating
Please do not post tabs as comments. Select "correction" instead!