Oops, an error
Loading. Please wait.

Thoughtless Tab

version 2
version 2

Whole song

Interactive

2,407 views 6 this week
no commentswrite comment
1 2 3 4 5
2 more votes to show rating
add to favorites
launch autoscroll
font size
0
reset
how to read this tab
guitar tuner
Autoscroll
slow
fast
+/-
esc
set tempo
stop
Help us to improve Ultimate-Guitar.com Take our survey!
×
Author
Band: Evanescence 
Song: Thoughtless (KORN cover)
Tabbed by: Alice (blink_rule@hotmail.com)

Ok all the tabs for this song sounded terrible so i had my teacher help me and this is
what we came up with. Theres on guitar and its tuned drop D any questions email me. Please Rate!

Notation:
2.  This means after you 
2.  strum the chord you 
2.  quickly mute it. 

Intro: Is where amy lee plays the piano bit and sings.

Riff 1:
e|-----------|         |-----------------------|      
b|-----------|         |-----------------------|
g|-----------| x3 then |-----------------------| x1
d|--99-11-9--|         |--99-11-9-12-12-12-12--|
a|--99-11-9--|         |--99-11-9-12-12-12-12--|
e|--99-11-9--|         |--99-11-9-12-12-12-12--|

Riff 2:
e|---------------|-------------------|
b|---------------|-------------------|
g|---------------|-------------------|
d|--222-3333-2.--|--222-3333-111111--|
a|--222-3333-2.--|--222-3333-111111--|
e|--222-3333-2.--|--222-3333-111111--|

Riff 3:
e|--------------------------------------|
b|--------------------------------------|
g|--------------------------------------| strum slowly
d|--4-4-4-4--7-7-7-7--2-2-2-2--0-0-0-0--|
a|--4-4-4-4--7-7-7-7--2-2-2-2--0-0-0-0--|
e|--4-4-4-4--7-7-7-7--2-2-2-2--0-0-0-0--|

Riff 4:
e|-------------------------|
b|-------------------------|
g|-------------------------|
d|-------------------------|
a|----5----5----5----6666--|
e|--0---00---00---00-------|

Riff 5:
e|--------------------|
b|--------------------|
g|--------------------|
d|--7-7--10-10--6-6---|
a|--6-6---9--9--5-5---|
e|--5-5---8--8--4-4---|

  Song Order:
Riff 1 x6
Riff 2 x2
Riff 3 x2
Riff 1 x4 
Riff 2 x2
Riff 3 x2 
Riff 4 x8
Riff 1 x4
Riff 2 x1
Riff 3 x4

Thats it, it's fairly easy to play just strum slowly in the chorus cos the distrotion
make sit sound mad. O and on the last chord of the song u might wanna let it ring it
would sound better anyway please rate.
Suggest correction
Give kudos to tab author, rate the tab!
1 2 3 4 5
comments
print report bad tab
guest
You may want to rate the tab now too:
select rating
Wanna post a correction for this tab? Suggest correction