Oops, an error
Loading. Please wait.

Thoughtless Tab

version 3
version 3

Whole song

Interactive

3,905 views 3 this week
no commentswrite comment
1 2 3 4 5
excellent!
x 4
add to favorites
launch autoscroll
font size
0
reset
how to read this tab
guitar tuner
Tab Pro tools
  • play this tab
  • loop segment
  • change instrument
  • show fretboard
  • metronome
×
Best way to learn
"Thoughtless"
Autoscroll
slow
fast
+/-
esc
set tempo
stop
Contributor
I have seen this tab elsewhere, and it is wrong for the most part, so am giving you all
the correct tab. I sounded it out while playing the song, so it is correct I can assure
you. Its my first tab, so it may be a little hard to read. However, if you are certain
you found an error, do not hesitate to send a correction to me at anonomusguy@aol.com

Artist: Evanescence
Album: Anywhere But Home
Song: Thoughtless

Tuning: Drop D down half step (Db-Ab-Db-Gb-Bb-Eb)

PM- Palm Mute
x- Strum while muting strings on neck

Intro/Verse 
Note: The palm mutes are very slight.

-----------------------------------------------------------------------------------|
-----------------------------------------------------------------------------------|
-----------------------------------------------------------------------------------|
-0-0-10-0-0-10---0-0-10-0-0-10---0-0-12-0-0-12---0-0-12-0-0-13-13-13-13--0-10-0-10-|
-0-0-10-0-0-10---0-0-10-0-0-10---0-0-12-0-0-12---0-0-12-0-0-13-13-13-13--0-10-0-10-|
-0-0-10-0-0-10---0-0-10-0-0-10---0-0-12-0-0-12---0-0-12-0-0-13-13-13-13--0-10-0-10-|
PM..    ...      ...    ...      ...    ...      ...    ...              ..   ..



Pre Chorus
Repeat x2

--------------------------------------------------|
--------------------------------------------------|
--------------------------------------------------|
-3-3-3-4-4-2-2-3-3----3-3-3-4-4-1-1-1-1-1-3-3-3-3-|
-3-3-3-4-4-2-2-3-3----3-3-3-4-4-1-1-1-1-1-3-3-3-3-|
-3-3-3-4-4-2-2-3-3----3-3-3-4-4-1-1-1-1-1-3-3-3-3-|


Chorus
Repeat x2 First two times
Repeat x4 Last Chorus

Guitar 1
---------------------------------------------------------------------------------------|
---------------------------------------------------------------------------------------|
---------------------------------------------------------------------------------------|
-5-5-x-5-5-5-5-5-x-5-x-8-8-x-8-8-8-8-8-x-8-x-3-3-x-3-3-3-3-3-x-3-x-1-1-x-1-1-1-1-1-x-1-|
-5-5-x-5-5-5-5-5-x-5-x-8-8-x-8-8-8-8-8-x-8-x-3-3-x-3-3-3-3-3-x-3-x-1-1-x-1-1-1-1-1-x-1-|
-5-5-x-5-5-5-5-5-x-5-x-8-8-x-8-8-8-8-8-x-8-x-3-3-x-3-3-3-3-3-x-3-x-1-1-x-1-1-1-1-1-x-1-|

Guitar 2
----------------------------------------------------------------------------------------|
----------------------------------------------------------------------------------------|
-7-7-7-7-7-7-7-7-7-7-7-10-10-10-10-10-10-10-5-5-5-5-5-5-5-5-5-5-5-5-3-3-3-3-3-3-3-3-3-3-|
----------------------------------------------------------------------------------------|
-5-5-5-5-5-5-5-5-5-5-5-8--8--8--8--8--8--8--3-3-3-3-3-3-3-3-3-3-3-3-1-1-1-1-1-1-1-1-1-1-|
----------------------------------------------------------------------------------------|


Bridge
("All my friends are gone, they died" part)
Note: No Distortion

Guitar 1 (Bending back and forth)
-----------------------------------------------------------------------------------|
-----------------------------------------------------------------------------------|
-----------------------------------------------------------------------------------|
-----------------------------------------------------------------------------------|
-5-5-5-5-5-5-5-5-5-5-5-5-5-5-5-5-5-5-5-5-5-5-5-5-5-5-5-5-5-5-5-5-5-5-5-5-5-5-5-5-5-|
-----------------------------------------------------------------------------------|

Guitar 2
-----------------------------------------------------------------------------------|
-----------------------------------------------------------------------------------|
-----------------------------------------------------------------------------------|
-----------------------------------------------------------------------------------|
-----------------------------------------------------------------------------------|
-0-0-10-0-0-10---0-0-10-0-0-10---0-0-12-0-0-12---0-0-12-0-0-13-13-13-13--0-10-0-10-|

Verse Riff then played after this

When Verse Riff Cuts out, play these three chords incorporating bends as needed

-------------|
-------------|
-7----10---5-|
-6----9----4-|
-5----8----3-|
-------------|
comments
print report bad tab
I want to post or [tab]
guest
You may want to rate the tab now too:
select rating
Please do not post tabs as comments. Select "correction" instead!